Song name
# A B C D E F G H I J K L M N O P Q R S T U V W X Y Z

As Judgement Day Approaches - Burn The Anathema tab

Burn The Anathema
by As Judgement Day Approaches (fb.me/asjudgementdayapproaches)
From the 2011 Genocide EP

Gtr 1 "Mike"  G D G C E A
Gtr 2 "Bacon" G D G C E F (for ugly dissonants in a 2 string bar)

Palm mute opens
|---------------------------------------------------------------------------|
|---------------------------------------------------------------------------|
|---------------------------------------------------------------------------|
|---------------------------------------------------------------------------|
|-----------------5555-4444----------------------------5555-4444-8888-7777--|
|-000-000-000-000-----------8888-7777--000-000-000-000----------------------|
PM*** *** *** ***                      *** *** *** ***

|---------------------------------------------------------------------------|
|---------------------------------------------------------------------------|
|---------------------------------------------------------------------------|
|---------------------------------------------------------------------------|
|-----------------5555-4444----------------------------5555-4444-8888-7777--|
|-000-000-000-000-----------8888-7777--000-000-000-000----------------------|
| *** *** *** ***                      *** *** *** ***
|---------------------------------------------------------------------------|
|---------------------------------------------------------------------------|
|---------------------------------------------------------------------------|
|---------------------------------------------------------------------------|
|-----------------8888-7777----------------------------8888-7777-1111-1010--|
|-000-000-000-000-----------1111-1010--000-000-000-000----------------------|
PM*** *** *** ***                      *** *** *** *** 

|---------------------------------------------------------------------------|
|---------------------------------------------------------------------------|
|---------------------------------------------------------------------------|
|---------------------------------------------------------------------------|
|-0-3-2-1-0-1-----0-0-0-0-0-0--0-3-2-1-0-1-0~-0000-0000-0000----------------|
|-0-4-3-2-0-2-3b--1-1-1-1-1-1--0-4-3-2-0-2-0~-0000-0000-0000----------------|
PM* * * * * *     * * * * * *  * * * * * *    **** **** ****

Tremolo picked riff
|---------------------------------------------------------------------------|
|-------------------------------------------11----8-------------------------|
|-----------------------------------------8-10--5-7-------------------------|
|---13-12---8-7---3-5---3-5----repeats----8-8---5-5-------------------------|
|-8-------5-----0-----0-------------------8-8---5-5-------------------------|
|---------------------------------------------------------------------------|

|---------------------------------------------------------------------------|
|---------------------------------------------------------------------------|
|---------------------------------------------------------------------------|
|---------------------------------------------------------------------------|
|-1--1--1-1-1-1--1--1---1--1--1-1-1-1---------------------------------------|
|-2--2--2-2-2-2--2--2---2--2--2-2-2-2----repeats-then-moves-down------------|
PM*  *  * * * *  *  *   *  *  * * * *
|---------------------------------------------------|
|---------------------------------------------------|
|---------------------------------------------------|
|---------------------------------------------------|
|-0--0--0-0-0-0--0--0---0--0--0-0-0-0----------0--0-|
|-1--1--1-1-1-1--1--1---1--1--1-1-1-1----------1--1-|

----------------------------------------------------|
----------------------------------------------------|
----------------------------------------------------|
----------------------------------------------------|
-0-0-0-0--0--0---0--0--0-0-0-0----------------------|
-1-1-1-1--1--1---1--1--1-1-1-1----------------------|

| *  *  * * * *  *  *   *  *  * * * *          *  *  * * * *  *  *   *  *  * * * *
|--------------------------------------9-9-9-9-9-9-9-9-9-9-9-9-|
|-------------------------------------9-9-9-9-9-9-9-9-9-9-9-9-9|
|---------------------------------------BACONS-UGLY-DISSONANTS-|
|--------------------------------------------------------------|
|-0--0--0-0-0-0--0--0---0--0--0-0-0-0--------------------------|
|-1--1--1-1-1-1--1--1---1--1--1-1-1-1--------------------------|

9-9-9-9-9-9-9-9-9-9-9---15--15--15--15---|
-9-9-9-9-9-9-9-9-9-9--15--15--15--15--15-|
-----------------------------------------|
-----------------------------------------|
-----------------------------------------|
-----------------------------------------|

PM*  *  * * * *  *  *   *  *  * * * *

Tremolo picked fade out
|---------------------------------------------------------------------------|
|-------------------------------------------11----8-------------------------|
|-----------------------------------------8-10--5-7-------------------------|
|---13-12---8-7---3-5---3-5----repeats----8-8---5-5-------------------------|
|-8-------5-----0-----0-------------------8-8---5-5-------------------------|
Tap to rate this tab
# A B C D E F G H I J K L M N O P Q R S T U V W X Y Z