Song name
# A B C D E F G H I J K L M N O P Q R S T U V W X Y Z

As Lions And Lambs - Waves Of Fire tab

(/) Slide Up  (\) Slide Down  (h) Hammer On  (p) Pull Off  (b) Bend (r) Release (v) Vibrato

E|--------------------------------------------------------------------------------------------------|
B|--------------------------------------------------------------------------------------------------|
G|--------------------------------------------------------------------------------------------------|
D|--------15p0--------------------15p0--------------------15p0--------------------15p0--------------|
A|--------------15p0--12p0--------------15p0--12p0--------------15p0--12p0--------------15p0--12p0--|
E|--12p0--------------------12p0--------------------12p0--------------------12p0--------------------|


E|--------------------------------------------------------------------------------------------------|
B|--------------------------------------------------------------------------------------------------|
G|--------------------------------------------------------------------------------------------------|
D|--8--8--8--8--8--8--8--8--10p8--8--------8--------8--8--8--8--8--8--8--8--10p8--8--------8--------|
A|--8--8--8--8--8--8--8--8--------8--12p8--8--10p8--8--8--8--8--8--8--8--8--------8--12p8--8--10p8--|
E|--8--8--8--8--8--8--8--8--------8--------8--------8--8--8--8--8--8--8--8--------8--------8--------|

							http://www.guitartabcreator.com
E|--------------------------------------------------------------------------------------------------|
B|--------------------------------------------------------------------------------------------------|
G|--------------------------------------------------------------------------------------------------|
D|--------15p0--------------------15p0--------------------15p0--------------------15p0--------------|
A|--------------15p0--12p0--------------15p0--12p0--------------15p0--12p0--------------15p0--12p0--|
E|--12p0--------------------12p0--------------------12p0--------------------12p0--------------------|


E|--------------------------------------------------------------------------------------------------|
B|--------------------------------------------------------------------------------------------------|
G|--------------------------------------------------------------------------------------------------|
D|--8--8--8--8--8--8--8--8--10p8--8--------8--------8--8--8--8--8--8--8--8--10p8--8--------8--------|
A|--8--8--8--8--8--8--8--8--------8--12p8--8--10p8--8--8--8--8--8--8--8--8--------8--12p8--8--11----|
E|--8--8--8--8--8--8--8--8--------8--------8--------8--8--8--8--8--8--8--8--------8--------8--------|
Tap to rate this tab
# A B C D E F G H I J K L M N O P Q R S T U V W X Y Z