Song name
# A B C D E F G H I J K L M N O P Q R S T U V W X Y Z

As Tall As Lions - Maybe Im Just Tired tab

Song: Maybe I'm Just Tired
Album: As Tall As Lions
Band: As Tall As Lions
Tabber: Calum Neil (afirock74@hotmail.com)
Tuning: Flat Tuning (tuned down 1/2 a step)

Intro (Piano):
e|---------------------------------------------------------------------|
b|--9-9---------9-9---9-9---------9-9----5-5-4-4--------5-5-4-4--------|
g|------6-6-9-9-----------6-6-9-9---------------4-4------------4-4-----|
d|-------------------------------------------------6-6-------------6-6-|
a|---------------------------------------------------------------------|
E|---------------------------------------------------------------------|

Verse (1:43):
e|-0-0--0-0--0-0--0----------|
b|--4----4----4----4-0-0h2---|
g|---------------------------|
d|---------------------------|
a|---------------------------|
E|---------------------------|

Pre Chorus (2:06):
e|--0-------0--------|
b|--0-------9--------|
g|--6-------9--------|
d|--7-------9--------|
a|--7-------7--------|
E|--5----------------|

Chorus:
e|--0-------0----9-9-9-9-9-7-7-------------------|
b|--0-------9------------------10-9-9-9-9-9-9-9--|
g|--6-------9------------------------------------|
d|--7-------9------------------------------------|
a|--7-------7------------------------------------|
E|--5--------------------------------------------|

Bridge:
e|--2-2-2-2-2-2--4-4-4-4-4---------------4-4-4-4-4---|
b|--2-2-2-2-2-2--5-5-5-5-5--4-4-4-4-4-4--4-4-4-4-4---|
g|--2-2-2-2-2-2--6-6-6-6-6--4-4-4-4-4-4--4-4-4-4-4---|
d|--4-4-4-4-4-4--6-6-6-6-6--4-4-4-4-4-4--6-6-6-6-6---|
a|--4-4-4-4-4-4--4-4-4-4-4--2-2-2-2-2-2--6-6-6-6-6---|
E|--2-2-2-2-2-2--------------------------4-4-4-4-4---|

End On:
e|--0---|
b|--0---|
g|--1---|
d|--2---|
a|--2---|
E|--0---|
Tap to rate this tab
# A B C D E F G H I J K L M N O P Q R S T U V W X Y Z