Song name
# A B C D E F G H I J K L M N O P Q R S T U V W X Y Z

As We Fight - Bringing It All Together tab

As We Fight - Bringing It All Together (Black Nails and Bloody Wrists
tabbed by DeV!8eR
f'ing sweet intro...

e|-----------------------------------------------------------|
B|-----------------------------------------------------------|
G|-----------------------------------------------------------|
D|-0-0-0-0-7-0-0-0-0-8-0-0-5-0-0-0-0-7-0-0-8p0-5p0-7p0-3(p0)-|
A|-0-0-0-0---0-0-0-0---0-0---0-0-0-0---0-0-------------------| x4
E|-0-0-0-0---0-0-0-0---0-0---0-0-0-0---0-0-------------------|
   x x x x   x x x x   x x   x x x x   x x

e|-----------------------------------------------------------|
B|-----------------------------------------------------------|
G|---------7---------8-----5---------7-----------------------|
D|-0-0-0-0---0-0-0-0---0-0---0-0-0-0---0-0-8p0-5p0-7p0-3(p0)-|
A|-0-0-0-0---0-0-0-0---0-0---0-0-0-0---0-0-------------------| x2
E|-0-0-0-0---0-0-0-0---0-0---0-0-0-0---0-0-------------------|
   x x x x   x x x x   x x   x x x x   x x

e|-----------------------------------------------------------|
B|-----------------------------------------------------------|
G|-----------------------------------------------------------|
D|-0-0-0-0-7-0-0-0-0-8-0-0-5-0-0-0-0-7-0-0-8p0-5p0-7p0-3(p0)-|
A|-0-0-0-0---0-0-0-0---0-0---0-0-0-0---0-0-------------------| x2
E|-0-0-0-0---0-0-0-0---0-0---0-0-0-0---0-0-------------------|
   x x x x   x x x x   x x   x x x x   x x

metal! punk! hardcore! we stand as one!
www.aswefight.com
Tap to rate this tab
# A B C D E F G H I J K L M N O P Q R S T U V W X Y Z