Song name
# A B C D E F G H I J K L M N O P Q R S T U V W X Y Z

Asaf Avidan And The Mojos - Her Lies Acoustic tab

Tabbed by Daniel Cohen
dcohenb@gmail.com

Tuning: standard
Capo 5th fret


Intro + Verse:
   Am           Dm
e|------------0h1-1---3---------------|
B|-1-1--0-1---0h3-3---3---------------|
G|-2-2--2-2---0h2-2---2---------------|
D|-2-2--2-2---------------------------|
A|------------------------------------|
E|------------------------------------|
Play intro 2 times and then keep on playing it throw the verse



Chorus:
   F    E    Am
e|-1----0----0------------------------|
B|-1----0----1------------------------|
G|-2----1----2------------------------|
D|-3----2----2------------------------|
A|-3----2----0------------------------|
E|-1----0----0------------------------|



End on:
                                Am
e|-5---5------------------------0-----|
B|------5---5-------------------1-----|
G|-----------5---5-2-2----------2-----|
D|----------------------3-2-1---2-----|
A|------------------------------0-----|
E|------------------------------0-----|

Enjoy.
Tap to rate this tab
# A B C D E F G H I J K L M N O P Q R S T U V W X Y Z