Song name
# A B C D E F G H I J K L M N O P Q R S T U V W X Y Z

Asaf Avidan And The Mojos - A Phoenix Is Born tab

-------------------------------------------------------------------------------
		     A Phoenix Is Born - Asaf Avidan And The Mojos
-------------------------------------------------------------------------------
Tabbed by: Or Dubinsky 

Email: odubi@bezeqint.net

Tuning: standard (no capo).

E-|--------------------------|
B-|--------------------------|
G-|-------4--7---------------|
D-|----5----------5----------|X5
A-|--7---7------7---7--5-7---|
E-|--------------------------|

E-|--------------------------------------------------|
B-|--------------------------------------------------|
G-|-9-7--7----9-7--------9-7--7------9-7-------------|
D-|-----9--9------9-7-9------9--9---9----9--77-5-----|
A-|----------------------------------------------7---|
E-|--------------------------------------------------|

E-|--------------------------|
B-|--------------------------|
G-|-------4--7---------------|
D-|----5----------5----------|
A-|--7---7------7---7--5-7---|
E-|--------------------------|

E-|-12-10---10-----------------------|
B-|-------12--12-------10---12-------|
G-|---------------9-12----12---9-9---|
D-|----------------------------------|X2
A-|----------------------------------|
E-|----------------------------------|

E-|--------7-10----------------------|
B-|----8----------8------------------|
G-|--9---9------9---9--7-9-----------|
D-|----------------------------------|X2
A-|----------------------------------|
E-|----------------------------------|

E-|--------------------------|
B-|--------------------------|
G-|-------4--7---------------|
D-|----5----------5----------|
A-|--7---7------7---7--5-7---|
E-|--------------------------|


tnx Omer.
Tap to rate this tab
# A B C D E F G H I J K L M N O P Q R S T U V W X Y Z