Song name
# A B C D E F G H I J K L M N O P Q R S T U V W X Y Z

Asaf Avidan And The Mojos - Left Behind tab

I made this TAB by watching one of his YouTube videos.
                      (http://www.youtube.com/watch?v=h9LLVMV9LH8)


Capo 2nd. Fret

Chords:

    E   G#m   B   C#m   A    
E|--0----4----2----4----0----5--|
B|--0----4----4----5----2----5--|
G|--1----4----4----6----2----6--|
D|--2----6----4----6----2----7--|
A|--2----6----2----4----0----7--|
E|--0----4----0----4----0----5--|



Intro:


E|-----------------------------------------------------------------------------|
B|-----------0-----------------------------------0-----------------------------|
G|-----1-----------1-----1-----1-----1-----1-----------1-----1-----1-----1-----|
D|--------2-----2-----------------------------2-----2--------------------------|
A|--------------------4-----2-----0-----2--------------------------------------|
E|--0-----------------------------------------------------2-----4-----2-----0--|


E|-----------------------------------------------------------------------|
B|--------0-----------------0-----------------0-----------------0--------|
G|--1-----------1-----1-----------1-----1-----------1-----1-----------1--|
D|-----2-----2-----------2-----2-----------2-----2-----2-----2-----2-----|
A|-----------------2-----------------------------------------------------|
E|-----------------------------------0-----------------------------------|



[verse 1]

E             G#m
Summer sun is setting,
C#m                      A
and the grass is turning gold,
E                B
another season's changing,
A                    E
and i'm just gettin' old.


[verse 2]

E                     G#m
The autumn leaves are rainning,
C#m                    A
and it's the sparrow's time to fall
E                B
another season's Fading,
A                   E
and I'm just getting old.

[Chorus]

G#m                
If you ever find a way,
G#m               
to run as fast as time,
C#m        B           A
you will find the wind that's blowing,
             B  A      E
you tell her I was left behind.

[Intro]

[verse 3]

E                     G#m
The weather frost is biting,
C#m                    A
even the trees outside are cold,
E                B
another season's changing,
A                    E
and I'm just gettin' old.

[verse 4]
E                     G#m
The seeds of spring are spreading,
C#m                    A
with life no man can hold,
E                B
another season's changing,
A                    E
and I'm just getting old.

[chorus]
G#m                
If you ever find a way,
G#m                
to run as fast as time,
C#m      B             A
you will find the wind that's blowing,
            B A        E
you tell her I was left behind.
            B A        E
you tell her I was left behind.
            B A        E
you tell her I was left behind.
            B A        E
Oh tell her I... was left behind
            B A        E
you tell her I was left behind.





Enjoy!
Tap to rate this tab
# A B C D E F G H I J K L M N O P Q R S T U V W X Y Z