Song name
# A B C D E F G H I J K L M N O P Q R S T U V W X Y Z

Asaf Avidan And The Mojos - A Ghost Before The Wall tab

Tabbed by: Kadima
E-mail:johu2000-us@yahoo.de
Standard tuning, Capo on 4th

|1---2---3---4---|1---2---3---4---|1---2---3---4---|1---2---3---4---|

Verse:
|Em                               |Dm                               |
|----------------|----------------|----------------|----------------|
|----------------|----------------|--3-------3-----|--3-------3-----|
|------0-------0-|------0-------0-|------0h2-----0h|2-----0h2-----0-|
|--2-------2-----|--2-------2-----|0---0---0---0---|0---0---0---0---|
|---0h2-----0h2--|---0h2-----0h2--|----------------|----------------|
|0-------0-------|0-------0-------|----------------|----------------|

 She had them big thick lips, like pillows underneath her cheeks.
 When she spoke, an avalanche rolled on them from behind her teeth
 Suddenly, the carpet, was pulled from underneath my feet
 When I tried to get close, she just laughed and got beneath the sheets.

Chorus: (just play around with these)

|Bm                               |G                                |
|----------------|----------------|--------------3-|----------------|
|------3-------3-|------3-------3-|------3---------|--3-------3-----|
|--4-------4-----|--4-------4-----|--4-------4-----|------4-------4-|
|----4-------4---|----4-------4---|----------------|----------------|
|2-------2-------|2-------2-------|----5---5---5---|5---5---5---5---|
|----------------|----------------|3---------------|----------------|

 She said "No, no, no, I gotta prove you wrong"
 She said "No, no, no, I gotta prove you wrong"

Verse:

 She had them big almond eyes, that gave her away
 And when she started them you could see the tornadoes play
 I had the kind of empty hole, that always made her pay
 She had them dancing shoes that never let her stay

Chorus:

 She said "No, no, no - I gotta prove you wrong"
 She said "No, no, no, no, no, no - I gotta prove you wrong"
 She said "No, no, no, no, no, no - I gotta prove you wrong"
 She said "No, no, no - I gotta prove you wrong"

(now strumming, offbeat for example)

Bm                      A          G
   Suddenly she says - "Here I am,    coming back like a ghost before the wall" (10x)
Tap to rate this tab
# A B C D E F G H I J K L M N O P Q R S T U V W X Y Z