Song name
# A B C D E F G H I J K L M N O P Q R S T U V W X Y Z

Asaf Avidan And The Mojos - Your Anchor tab

Your Anchor by Asaf Avidan and the Mojos.
All rights by Asaf Avidan and the Mojos.


Capo 4

Repeat through the whole song:


  am                            D/G
e|----------------------------|----------------------------|
b|------------1------------1--|------------3------------3--|
g|--------0h2----------0h2----|--------0h2----------0h2----|
d|------2------------2--------|------0------------0--------|
a|----0------------0----------|----------------------------|
e|----------------------------|----3------------3----------|


  am                           am
e|----------------------------|----------------------------|
b|------------1------------1--|------------1------------1--|
g|--------0h2----------0h2----|--------0h2----------0h2----|
d|------2------------2--------|------2------------2--------|
a|----0------------0----------|----0------------0----------|
e|----------------------------|----------------------------|

Have fun!


If you've found improvements, send me a mail: maxstrohmenger@aol.de
Tap to rate this tab
# A B C D E F G H I J K L M N O P Q R S T U V W X Y Z