Song name
# A B C D E F G H I J K L M N O P Q R S T U V W X Y Z

Asaf Avidan - One Day Reckoning Song tab

Asaf Avidan - One day / Reckoning Song
___________________________________________________________________________

This is my first tab.
So i was not happy with the results i found on the web for the tabs of this song. so 
this is what i came up with i hope this is helpfull to you

Tuning: Standert
Capo: 6 fret


  Am               C                G                F
e ----------------|----------------|----------------|----------------|
b --1---1---1---1-|--1---1---1---1-|--0---0---0---0-|--1---1---1--p0-|
g --2---2---2---2-|--0---0---0---0-|--0---0---0---0-|--2---2---2--p0-|
D ----2-------2---|----2-------2---|----0-------0---|----3-------3p0-|
A 0-------0-------|3-------3-------|----------------|----------------|
E ----------------|----------------|3-------3-------|1--------1---p0-|

Repeat

Note: the last part when you are playing F try and do a pulloff not to hard then its 
gonna make the right sound.

  Am
e ---------------------------------------|
b ---1----1----1----1----1----1----1---1-|
g --2----2----2----2----2----2----2---2--|
D -----2----2----2----3----3----2---2----|
A 0--------------------------------------|
E ---------------------------------------|

Repeat

Note this part is going rly fast try if your having a hard time to just play the base 
notes with your thump untill you have the rythme and the teqnice.

This tab was created by TheV.
(i apologize for my poor english whriting skill.)
Tap to rate this tab
# A B C D E F G H I J K L M N O P Q R S T U V W X Y Z