Song name
# A B C D E F G H I J K L M N O P Q R S T U V W X Y Z

Asaf Avidan - Different Pulses tab

-------------------------------------------------------------------------------
                     DIFFERENT PULSES - Asaf Avidan
-------------------------------------------------------------------------------
Tabbed by: Chai Ozeri
E-mail: chainet24@gmail.com

Tuning: Standart

Chords are A#, Dm all over (Verses, Chorus, Solo) except pre-chorus solo (see next)
I play it like this:

    A#
e|---6-----------------------------------------------------------------------|
B|---6-----------------------------------------------------------------------|
G|---7-----------------------------------------------------------------------|
D|---7-----------------------------------------------------------------------|
A|---8-----------------------------------------------------------------------|
E|---6-----------------------------------------------------------------------|

    Dm
e|---5-----------------------------------------------------------------------|
B|---6-----------------------------------------------------------------------|
G|---7-----------------------------------------------------------------------|
D|---7-----------------------------------------------------------------------|
A|---5-----------------------------------------------------------------------|
E|---5-----------------------------------------------------------------------|


Pre-Choros solo:

     Cm                                         Dm
e|---8-----------------------------------------------------------------------|
B|---------------------10-11-10------8-10-8----------------------------------|
G|-----------------------------------------------7---------------------------|
D|---------------------------------------------------------------------------|
A|---------------------------------------------------------------------------|
E|---------------------------------------------------------------------------|

     A
e|---------------------------------------------------------------------------|
B|---10----------------------------------------------------------------------|
G|------10-12-13-------------------------------------------------------------|
D|---------------------------------------------------------------------------|
A|---------------------------------------------------------------------------|
E|---------------------------------------------------------------------------|

Solo:

     A#                                     Dm
e|---10-------------------12-13---12---10------------------------------------|
B|------11----------------------------------10-------------------------------|
G|---------------------------------------------------------------------------|
D|---------------------------------------------------------------------------|
A|---------------------------------------------------------------------------|
E|---------------------------------------------------------------------------|

     A#                                     Dm
e|---10-------------------12-13---12---10------------------------------------|
B|------------------------------------------10-------------------------------|
G|---------------------------------------------------------------------------|
D|---------------------------------------------------------------------------|
A|---------------------------------------------------------------------------|
E|---------------------------------------------------------------------------|


The stracture of the song is:
verse, pre-chorus, chorus,
verse, pre-chorus, solo,
verse, chorus.

That's it, if you find any mistakes let me know.
Cheers!
Tap to rate this tab
# A B C D E F G H I J K L M N O P Q R S T U V W X Y Z