Song name
# A B C D E F G H I J K L M N O P Q R S T U V W X Y Z

Asaf Avidan - Brickman tab

capo fret 3

Intro:
E F#m E F#m

E
|-------0-----|
|-0-------0---|
|---1-------1-|
|-----2-2-----|
|-------------|
|-0-----------|

F#m
|-------2-----|
|-2-------2---|
|---2-------2-|
|-----4-4-----|
|-------------|
|-2-----------|

A
|-------5-----|
|-5-------5---|
|---6-------6-|
|-----7-7-----|
|-------------|
|-5-----------|

               E        F#m        
They said his mama had cement for milk 
            E               F#m
And that his papa built him brick by brick
          A              E             F#m 
And now the world breaks like waves on his skin
            A           E                    F#m 
And all the words like broken birds are trapped within 

              E        F#m
They said his mama had cement for milk 
              E          F#m
And that his brother was ten foot thick 
              A           E             F#m
And now the world breaks like waves on his skin 
             A                E                  F#m  
And all the words like broken birds are trapped within
Tap to rate this tab
# A B C D E F G H I J K L M N O P Q R S T U V W X Y Z