Song name
# A B C D E F G H I J K L M N O P Q R S T U V W X Y Z

Asaf Avidan - This Cool tab

that's the reef asaf uses during the whole song (in the new version)


e/-------------------------------------------------|
B/-12b14-14br12-10-12-10---------------10b11-------|
G/-----------------------11----11-9-11-------11-9--|
D/-------------------------------------------------|
A/-------------------------------------------------|
E/-------------------------------------------------|

e/-----------------------12b14---|
B/-12b14-14br12-10-12-10---------|
G/-------------------------------|
D/-------------------------------|
A/-------------------------------|
E/-------------------------------|
Tap to rate this tab
# A B C D E F G H I J K L M N O P Q R S T U V W X Y Z