Song name
# A B C D E F G H I J K L M N O P Q R S T U V W X Y Z

Ascend The Hill - Awake tab

e-------------------------------------------2--2--2--2--4--4--4--4------|
B---5---3----5-----3----5----3----5-----3-------------------------------|
G-----4---4-----4----4----4----4----4-----4---4--4--4--4--4--4--4--4----|
D-----------------------------------------------------------------------|
A-----------------------------------------------------------------------|
E-----------------------------------------------------------------------|

e-------------------------------------------2--2--2--2------------------|
B---5---3----5-----3----5----3----5-----3----------------4b-------------|
G-----4---4-----4----4----4----4----4-----4---4--4--4--4----------------|
D-----------------------------------------------------------------------|
A-----------------------------------------------------------------------|
E-----------------------------------------------------------------------|
Tap to rate this tab
 
# A B C D E F G H I J K L M N O P Q R S T U V W X Y Z