Song name
# A B C D E F G H I J K L M N O P Q R S T U V W X Y Z

Ases Falsos - Salto Alto tab

http://asesfalsos.cl/

E|----------------------------------------------------------------------------------------|
B|----------------------------------------------------------------------------------------|
G|--------8-------8--8--6--4-----------11--11--11--9----9--9--8----8--8--7----8--6--3--4--|
D|--4--6-----6----------------6--4--6-----------------------------------------------------|
A|----------------------------------------------------------------------------------------|
E|----------------------------------------------------------------------------------------|


E|-----------------------------------------------------------------------------------------|
B|-----------------------------------------------------------------------------------------|
G|--------8-------8--8--6--4-----------11--11--11--9----9--9--8----8--7--8--9--8--6--3--4--|
D|--4--6-----6----------------6--4--6------------------------------------------------------|
A|-----------------------------------------------------------------------------------------|
E|-----------------------------------------------------------------------------------------|
Tap to rate this tab
 
# A B C D E F G H I J K L M N O P Q R S T U V W X Y Z