Song name
# A B C D E F G H I J K L M N O P Q R S T U V W X Y Z

Asesino - Aseino tab

Es la primer tablatura que saco, creo que es algo complicada por la rapidez en que 
que tocarla, he aqui la primer tablatura de asesino para guitarra normal aver que les parece 
asesino!!!

Por Hugo Enrique Reyes Martinez.


*Intro de pelicula...

PT.1
1.---------------------------------|
2.---------------------------------|
3.---------------------------------|
4.---------------------------------|
5.----323----323----323----55555---|  X4
6.2222---2222---2222---2222--------| (en la segunda vez se oye el grito ˇASESINO!)

PT.2
1.---------------------------------------|
2.---------------------------------------|
3.---------------------------------------|
4.4-4-4-4-4-3-3-3------------------------|
5.4-4-4-4-4-3-3-3-77777777776666666666---|  X4
6.4-4-4-4-4-3-3-3------------------------|

Muerte cay desde el cielo...chingo todo tiene nada (PT.2)
Hoy solo la sangre ama...busca tuya y de tu madre (PT.2)
Uso lo que me encuentro...te estrello con la pala (PT.2)
Dejo tu verga perforada...ˇtraigo alambre y unas pinzas! (PT.2)

*Se repite PT.1 (X2) ˇASESINO!

*Se repite PT.2 durando la siguiente parte [during the next part](X4)

Mato fresas a cien pesos...esos jotos dos por uno
Por un negro no te cobro...vala madres mato todos
No me pelo a el bote...con un shank mato gueros
No le temo a la muerte...ˇsolo putos muertos quedan!

*Se repite PT.1 (X2) ˇASESINO!

1.--------------------------------------------------------------------------|
2.--------------------------------------------------------------------------|
3.--------------------------------------------------------------------------|
4.--------------------------------------------------------------------------|
5.----------7777777777-----------9999999999-----------7777777777------------|
6.4-3-3-4-33-----------4-3-3-4-33-----------4-3-3-4-33-----------4-3-3-4-33-|
pm.........................................................................

PT.3
1.------------------------------------------|
2.------------------------------------------|
3.------------------------------------------|
4.4-3-3-4-33-----------4-3-3-4-33-----------|
5.4-3-3-4-337777777777-4-3-3-4-339999999999-| (X4)
6.4-3-3-4-33-----------4-3-3-4-33-----------|
    (1)                  (2)
Desgraciado............Destripado..........
Soy maldito............Balasiado...........

1.-------------------------------|
2.-------------------------------|
3.-------------------------------|
4.4/3-3/4/3-3--------------------|
5.4/3-3/4/3-3--------------------|(X8)
6.4/3-3/4/3-3--------------------|

*Se repide PT.3 (X4) pero con las siguientes palabras [repeat the PT.3 but with the next 
in the song]
    (1)                     (2)
Despedazado............Desencarnado...........
Soy Maltido............Mueres violado.........

*Se repide PT.3 (X4) otra vez pero con las siguientes palabras [one more time repeat the 
but with the next words in the song]
    (1)          (2)
Desgraciado...Destripado
Soy maldito...Balasiado
Despedazado...Desencarnado
Soy maldito...Mueres violado

1.-------------------------------------------|
2.-------------------------------------------|
3.-------------------------------------------|
4.-------------------------------------------|
5.-----323-----323-----323-----55555-----323-|
6.-2222----2222----2222----2222------2222----| ˇASESINO!
                                    ( X  3  )

1.-----------------------------------------|
2.-----------------------------------------|
3.-----------------------------------------|
4.-----------------------------------------|
5.----323----323----323----55555 ˇASESINO--|
6.2222---2222---2222---2222----------------|

1.---------------------------------|
2.---------------------------------|
3.---------------------------------|
4.---------------------------------|
5.----323----323----323----55555---| ˇYA!
6.2222---2222---2222---2222------2-|

Esa es toda la cancion...para cualquier duda mi correo es zaibatsu_12@hotmail.com, 
para saber como me salio...gracias y arriba el metal
Tap to rate this tab
# A B C D E F G H I J K L M N O P Q R S T U V W X Y Z