Guitaretab - guitar tabs
Song name
# A B C D E F G H I J K L M N O P Q R S T U V W X Y Z

Asesino - Sequestro Nuestro tab

-------------------------------------------------------------------------------
			     Sequestro Nusestro por Asesino
-------------------------------------------------------------------------------
Tabbed by:motallero
Email:motallero@hotmail.com

Tuning:ADGCFa
riff A
e|-----------------------------|
B|--------------------------0--|
G|-----------------------------|
D|-----------------------------|
A|----7--6--4------5--4--2-----|
E|-4------------2--------------|

riff B
e|---------------------------------------------------------------------------|
B|---------------------------------------------------------------------------|
G|---------------------------------------------------------------------------|
D|---------------------------------------------------------------------------|
A|------7777766666644444-------555554444422222-------------------------------|
E|-44444------------------22222----------------------------------------------|

riff C  verso verse
e|---------------------------------------------------------------------------|
B|---------------------------------------------------------------------------|
G|---------6-7-6--repx3------------------------------------------------------|
D|---------4-5-4-------------------------------------------------------------|
A|-6-7-6-6----------------------55555----------------------------------------|
E|-4-5-4-4-----------------66666---------------------------------------------|
[ Tab from: http://www.guitaretab.com/a/asesino/183637.html ]
riff D (pre-chorus) gtr 1
e|---------------------------------------------------------------------------|
B|---------------------------------------------------------------------------|
G|---------------------------------------------------------------------------|
D|---------------------------------------------------------------------------|
A|-------555555---5556666666555555-------repx4-------------------------------|
E|-666666------666-----------------------------------------------------------|

     gtr 2
e|---------------------------------------------------------------------|
B|-------12--------12-13----12-----------------------------------------|
G|-13----------13------------------------------------------------------|
D|---------------------------------------------------------------------|
A|---------------------------------------------------------------------|
E|---------------------------------------------------------------------|

riff E
pagas o mueres
e|-----------------------------------------------------------------------------|
B|-----------------------------------------------------------------------------|
G|-------9b---------8b-------7b------------------------------------------------|
D|-----------------------------------------------------------------------------|
A|-6-666------6-666----6-666---------------------------------------------------|
E|-4-444------4-444----4-444-----44444222222555552222--------------------------|

b=bend
t-tremolo pick
Related for Sequestro Nuestro tab