Song name
# A B C D E F G H I J K L M N O P Q R S T U V W X Y Z

Asesino - Asesino tab

-------------------------------------------------------------------------------
			     SONG NAME - Band Name
-------------------------------------------------------------------------------
Tabbed by:motallero
Email:motallero@hotmail.com

Tuning:ADGCFa

Riff A         

e|---------------------------------------------------------------------------|
B|---------------------------------------------------------------------------|
G|---------------------------------------------------------------------------|
D|--------4--2h4----------4--2h4---------4--2h4---------66666666-------------|
A|---------------------------------------------------------------------------|
E|-222222---------222222----------222222---------222222----------------------|

Riff B (verse)
e|---------------------------------------------------------------------------|
B|---------------------------------------------------------------------------|
G|-----------------555555555-444444444444------------------------------------|
D|---------------------------------------------------------------------------|
A|--7-7-7-7-5-5-5-5----------------------------------------------------------|
E|--5-5-5-5-3-3-3-3----------------------------------------------------------|

Riff C (bridge)
e|---------------------------------------------------------------------------|
B|---------------------------------------------------------------------------|
G|---------------444444444444----------------777777777777--------------------|
D|---------------------------------------------------------------------------|
A|---------------------------------------------------------------------------|
E|-3-2--3-4-3-2-----------------3-2--3-4-3-2---------------------------------|

Tap to rate this tab
 
# A B C D E F G H I J K L M N O P Q R S T U V W X Y Z