Song name
# A B C D E F G H I J K L M N O P Q R S T U V W X Y Z

Asesino - Y Tu Mama Tambien tab

Help us improve GuitareTab! Take a short survey!
-------------------------------------------------------------------------------
Y Tu Mama Tambien por Asesino
-------------------------------------------------------------------------------
Tabbed by:motallero
Email:motallero@hotmail.com

Tuning:BEADGb
intro/verse riff A (clean)

e|---------------------------0----------------repx3---------------------|
B|--------------------0---------0---------------------------------------|
G|----------------------------------------------------------------------|
D|----3-------5---------7-----------------------------------------------|
A|-1------3-------5-------5---------------------------------------------|
E|----------------------------------------------------------------------|

          harmonics
e|-----------(5)-------------------------------------------------------------|
B|-------(5)-----(5)---------------------------------------------------------|
G|---------------------------------------------------------------------------|
D|---------------------0-----------------------------------------------------|
A|----8------------------10--------------------------------------------------|
E|-----------------------8---------------------------------------------------|

verse/chorus Riff 1A (distortion)
e|--------------------------------------------------------repeatx3-----------|
B|---------------------------------------------------------------------------|
G|------------------5--5-5---5--5-5--5-5-5--5-5-5----------------------------|
D|-3--3-3--5--5-5---0--0-0---0--0-0--0-0-0--0-0-0----------------------------|
A|-1--1-1--3--3-3------------------------------------------------------------|
E|---------------------------------------------------------------------------|
   *  *    *  *     *  *     *  *    * *    * *
e|----------------------------------------------------|
B|----------------------------------------------------|
G|----------------------------------------------------|
D|--10-1010-10-1010-10-1010---------------------------|
A|--8--8-8--8--8-8--8--8-8---10-1010-10-1010-10-1010--|
E|--8--8-8--8--8-8--8--8-8---8--8-8--8--8-8--8--8-8---|
    *  *    *  *    *  *     *  *    *  *    *  *

Bridge Riff B (Tu mama, Mi mama)

e|---------------------------------------------------------------------------|
B|---------------------------------------------------------------------------|repeatx2
G|---------4-55555-4---------4-555555-4---------4-555555-4---------4-555554-0|
D|--3--3-3-----------------5-------------0--0-0-------------2--2-2-----------|
A|--------------------3--3-3-------------------------------------------------|
E|---------------------------------------------------------------------------|
    *  * *            *  * *             *  * *             *  * *
e|-----------------------------------|
B|-----------------------------------|
G|-----------------------------------|
D|-1010101010101010------------------|
A|-8-8-8-8-8-8-8-8-1010101010101010--|
E|-8-8-8-8-8-8-8-8-8-8-8-8-8-8-8-8---|
   * * * * * * * * * * * * * * * *

*=palm mute

===============================================================================
Related for Y Tu Mama Tambien tab