Song name
# A B C D E F G H I J K L M N O P Q R S T U V W X Y Z

Asesino - Y Tu Mama Tambien tab

-------------------------------------------------------------------------------
Y Tu Mama Tambien por Asesino
-------------------------------------------------------------------------------
Tabbed by:motallero
Email:m0tallero@myspace.com

Tuning= abajo 1 step DGCFAd
 
intro 
e|--------------------------------------------|
B|---------------------------0--------repx3---|
G|----------------------0-------0-------------|
D|---------(0)----5-------5-------------------|
A|---3------5--0------0-----------------------|
E|-1-----3------------------------------------|

e|-----------------------------------------|
B|------------0---------------------0------|
G|--------0------0----(0)--------0-----0---|
D|----5----------------5-------------------|
A|----3------------------5-----------------|
E|-----------------------3-----------------|


e|--------------------------------------------|
B|---------------------------0--------repx3---|
G|----------------------0-------0-------------|
D|---------(0)----5-------5-------------------|
A|---3------5--0------0-----------------------|
E|-1-----3------------------------------------|

          harmonics    
e|--------------------------------------------|
B|-----------(5)------------------------------|
G|-------(5)-----(5)--------------------------|
D|---------------------5----------------------|
A|----3------------------5--------------------|
E|-----------------------3--------------------|

 chorus 
e|-------------------------------------------------------|
B|-----------------------------------------------repeatx3|
G|-------------------------------------------------------|
D|------------------5--5----5--5---5--5--5---------------|
A|-3--3----5--5-----0--0----0--0---0--0--0---------------|
E|-1--1----3--3------------------------------------------|

e|----------------------------------------|
B|----------------------------------------|
G|--5-5-5-5-5-5-5-5-5---------------------|
D|--5-5-5-5-5-5-5-5-5-5-5-5-5-5-5-5-5-5---|
A|--3-3-3-3-3-3-3-3-3-5-5-5-5-5-5-5-5-5---|
E|--------------------3-3-3-3-3-3-3-3-3---|

Verse
e|----------------------------------------------------------------|
B|--------------------------------------------------------repeatx3|
G|----------------------------------------------------------------|
D|----------------------------------------------------------------|
A|----------------------------------------------------------------|
E|-1--1-1--3--3-3---5--5-5---5--5-5--5--5-5--5--5-5---------------|
   *  * *  *  * *   *  * *   *  * *  *  * *  *  * *
    v   ^ v   v   ^ v   v   ^ v   v   ^ v   v   ^ v   v   ^ v
e|-------------------------------------------------------------|
B|-------------------------------------------------------------|
G|-------------------------------------------------------------|
D|--5---5-5---5---5-5---5---5-5--------------------------------|
A|--3---3-3---3---3-3---3---3-3---5---5-5---5---5-5---5---5-5--|
E|--3---3-3---3---3-3---3---3-3---3---3-3---3---3-3---3---3-3--|
    *   * *   *   * *   *   * *   *   * *   *   * *   *   * *

 chorus 
e|-------------------------------------------------------|
B|-----------------------------------------------repeatx3|
G|-------------------------------------------------------|
D|------------------5--5----5--5---5--5--5---------------|
A|-3--3----5--5-----0--0----0--0---0--0--0---------------|
E|-1--1----3--3------------------------------------------|

e|----------------------------------------|
B|----------------------------------------|
G|--5-5-5-5-5-5-5-5-5---------------------|
D|--5-5-5-5-5-5-5-5-5-5-5-5-5-5-5-5-5-5---|
A|--3-3-3-3-3-3-3-3-3-5-5-5-5-5-5-5-5-5---|
E|--------------------3-3-3-3-3-3-3-3-3---|
 
puente     (Tu mama,          Mi mama           contigo)
e|----------------------------------------------------------------------------|
B|----------------------------------------------------------------------------|
G|----------55555444----------55555444-----------55555444-----------45555554-7|
D|-------------------------------------------(2)----------------(4)-----------|
A|--3--3-3----------------(5)------------0--0-0-------------2--2-2------------|
E|--------------------3--3-3--------------------------------------------------|
    *  * *            *  * *             *  * *             *  * *

Breakdown
e|----------------------------------------------------|
B|----------------------------------------------------|
G|-(5)------------------------------------------------|
D|--5-------------------2--------4------4--5--4--7----|
A|--3----------5--------0--------2------2--3--2--5----|
E|-------------3--------------------------------------|

e|----------------------------------------|
B|----------------------------------------|
G|----------------------------------------|
D|--5-5-5-5-5-5-5-5-5-5-5-5-5-5-5-5-5-5---|
A|--3-3-3-3-3-3-3-3-3-5-5-5-5-5-5-5-5-5---|
E|--3-3-3-3-3-3-3-3-3-3-3-3-3-3-3-3-3-3---|
    * * * * * * * * * * * * * * * * * *


puente II   (Tu mama,          Mi mama           contigo)
e|----------------------------------------------------------------------------|
B|----------------------------------------------------------------------------|
G|--------5555554444---------5555554444--------55555544444----------45555544-7|
D|----------------------------------------------------------------------------|
A|3--3-3--------------------------------0--0-0--------------2--2-2------------|
E|--------------------3--3-3--------------------------------------------------|
  *  * *              *  * *            *  * *              *  * *

Breakdown
e|----------------------------------------------------|
B|----------------------------------------------------|
G|-(5)------------------------------------------------|
D|--5-------------------2--------4------2--5--4--7----|
A|--3----------5--------0--------2------0--3--2--5----|
E|-------------3--------------------------------------|

Tiempo Doble
e|---------------------------------------------------------------------|
B|---------------------------------------------------------------------|
G|----------55554444---------55554444--------55554444--------45555544-7|
D|---------------------------------------------------------------------|
A|---333333-------------------------------------------222222-----------|
E|--------------------333333----------555555---------------------------|
     ******           ******          ******          ******


e|----------------------------------------|
B|----------------------------------------|
G|----------------------------------------|
D|--5-5-5-5-5-5-5-5-5---------------------|
A|--3-3-3-3-3-3-3-3-3-5-5-5-5-5-5-5-5-5---|
E|--3-3-3-3-3-3-3-3-3-3-3-3-3-3-3-3-3-3---|
    * * * * * * * * * * * * * * * * * *

*=palm mute
/=slide up
v=downstroke
^=upstroke

==============
=================================================================
Tap to rate this tab
# A B C D E F G H I J K L M N O P Q R S T U V W X Y Z