Song name
# A B C D E F G H I J K L M N O P Q R S T U V W X Y Z

Asfyxia - Asphyxiate tab

C#|-5--5--5--5--5--5--4--4--4--4--4--4--0--0--0--0--0--0---|
A |--7--7--7--7--7--7--7--7--7--7--7--7--7--7--7--7--7--7--|
E |---6--6--6--6--6--6--6--6--6--6--6--6--6--6--6--6--6--6-|
b |--------------------------------------------------------|
F#|--------------------------------------------------------|
B |--------------------------------------------------------|

C#|-5--5--7--5--4--4--5--4--0--0--0--0--0--0---|
A |--7--7--7--7--7--7--7--7--7--7--7--7--7--7--|
E |---6--6--6--6--6--6--6--6--6--6--6--6--6--6-|
b |--------------------------------------------|
F#|--------------------------------------------|
B |--------------------------------------------|

C#|-0--0--0--0--0--0--0--0--0--0--0--0--0--0--0--0--0-----|
A |--5--5--5--5--4--4--4--4--2--2--2--2--2--0--0--0--0--6-|
E |---6--6--6--6--6--6--6--6--4--4--4--4--6--6--4--4--4-6-|
b |-----------------------------------------------------4-|
F#|-------------------------------------------------------|
B |-------------------------------------------------------|
Tap to rate this tab
 
# A B C D E F G H I J K L M N O P Q R S T U V W X Y Z