Guitaretab - guitar tabs
Song name
# A B C D E F G H I J K L M N O P Q R S T U V W X Y Z

Asg - Saga tab

Intro (After bass)

eb]----------------------------------------------------------]
Bb]--------8-7-8--8-7---------------------8-7-8--8-7---------]
Gb]--------------------------7-9---------------------7-------]
Db]-------------------9--7-9---------------------------------]
Ab]----------------------------------------------------------]
Eb]/////0------------------------------0---------------------]

Main Riff

eb]-------------------------------]
Bb]-------------------------------]
Gb]-------------------------------]
Db]-2-----7-99--x--9-x-12-x-7---7~]        Play 2x but on the last just 
Ab]-2-----5-77--x-11-x-10-x-5-----]        let ring on D5.
Eb]-0-----------------------------]  

eb]-------------------------------]
Bb]-------------------------------]
Gb]-------------------------------]
Db]-2-----7-99--x--9-x-12-x-7---2~]
Ab]-2-----5-77--x-11-x-10-x-5-----]
Eb]-0-----------------------------]

Intro again 1x

Main Riff 1x

Pre Verse
[ Tab from: http://www.guitaretab.com/a/asg/139043.html ]
eb]-------------------------------]
Bb]-------------------------------]     Listen to figure out Rhythm.
Gb]-------------------------------]
Db]---7---------5---[-5-](Only on last time)-------------]
Ab]---7---------5---[-5-]--------------------------------]
Eb]---5*--------3*--[-3-]--------------------------------]

Verse

eb]------------------------------]
Bb]------------------------------]
Gb]---2------4-----4-4-4---------]      Play 6x; Listen to figure out Rythm.
Db]---2------4-----4-4-4---------]
Ab]---0*-----2*------------------]
Eb]------------------------------]

Pre Chorus

eb]-----------------------------------------------------------] 
Bb]-----------------------3-(3b on fourth time)--3h5----------]
Gb]-----------------------------------------------------------]
Db]-----------------------------------------------------------]
Ab]-----------------------------------------------------------]
Eb]----7777*-7t-6-5555*---------------------------------------]

Chorus

eb]-----------------------------------]
Bb]-----------------------------------]
Gb]-------------------10-10-10--9-----]
Db]--777777776555---------------------]
Ab]--777777776555------8--8--8--7-----]
Eb]--555555554333---------------------]

Verse 1x

Pre Chorus 1x

Chorus 1x 

For the little solo, just play the verse.

Verse 1x

Chorus 1x

Main Riff 1x

Outro

eb]-------------------------------]
Bb]-------------------------------]
Gb]-------------------------------]
Db]--5--4--3--2~~~~---------------]
Ab]--5--4--3--2~~~~---------------]
Eb]--3*-2*-1*-0~~~~---------------]
Related for Saga tab