Guitaretab - guitar tabs
Song name
# A B C D E F G H I J K L M N O P Q R S T U V W X Y Z

Asg - Act Like You Know tab

-------------------------------------------------------------------------------
			Act Like You Know - ASG
-------------------------------------------------------------------------------

Tuning: CGCFAd

intro
e|----------------------------------------|--------------------|
B|----------------------------------------|--------------------|
G|----------------------------------------|--------------------|
D|----------------------------------------|--------------------|
A|------------------------10b11-8~~-------|--5//---------------|
E|--0-00-10-12--00-10-12------------------|--------------------|

fill
e|----------------------------------------------------|
B|----------------------------------------------------|
G|----------------------------------------------------|
D|-----------8------------------------10/12-----------|
A|-------8-----8------------10------------------------|
E|--8--8---8--------10--10-----10-10------------------|

verse 1(chord strumming not shown)
                         x2
e|------------------------|-----------------------|----------------------|
B|------------------------|-----------------------|----------------------|
G|------------------------|-----------------------|----------------------|
D|---7--------------------|---8-------------------|--8-----------------9-|
A|---5--0-8-0-7-0-7-8-0---|---8--0-8-0-7-0-7-8-0--|--8--0-8-0-7-0-7----7-|
E|------------------------|---8-------------------|--8-------------------|
                         x2
e|------------------------|------------------------------------------|
B|------------------------|------------------------------------------|
G|------------------------|------------------------------------------|
D|-----7------------------|--8--------------------5------------------|
A|-----5--0-8-0-7-0-7-8-0-|--8--0-8-0-7-0-10-8-0--5--0-7-5-0-8-7-----|
E|------------------------|--8--------------------5------------------|

Repeat intro/fill

Verse 2                  x2
e|------------------------|-----------------------|----------------------|
B|------------------------|-----------------------|----------------------|
G|------------------------|-----------------------|----------------------|
D|---7--------------------|---8-------------------|--8-----------------9-|
A|---5--0-8-0-7-0-7-8-0---|---8--0-8-0-7-0-7-8-0--|--8--0-8-0-7-0-7----7-|
E|------------------------|---8-------------------|--8-------------------|
                        x2
e|-----------------------|----------------------|--------------------|
B|-----------------------|----------------------|--------------------|
G|-----------------------|----------------------|--------------------|
D|----7------------------|--8-------------------|-5-----------10-----|
A|----5--0-8-0-7-0-7-8-0-|--8--0-8-0-7-0-10-8-0-|-5-----------10-----|
E|-----------------------|--8-------------------|-5-----------10-----|
[ Tab from: http://www.guitaretab.com/a/asg/150324.html ]
pre-chorus                          x2
e|-------------------------------------|-------------------------|
B|-------------------------------------|-------------------------|
G|-------------------------------------|-------------------------|
D|---88888----5555-----/12--10--12--10-|---8--10--11-------------|
A|---88888----5555-----/12--10--12--10-|---8--10--11-------------|
E|---88888----5555-----/12--10--12--10-|---8--10--11-------------|

chorus                                 x2
e|--------------------------------------|-------------------------------------------------------------------------------|
B|--------------------------------------|-------------------------------------------------------------------------------|
G|--------------------------------------|-------------------------------------------------------------------------------|
D|---------------------------8--10--12\-|---------------------------8--10-------------8------------------------10/12----|
A|---------------------------8--10--12\-|---------------------------8--10---------8-----8------------10-----------------|
E|--0--00-10-12---00-10-12---8--10--12\-|--0--00-10-12---00-10-12---8--10----8--8---8--------10--10-----10-10-----------|

Bridge(i'm not 100% sure of this, but it's really close)
e|-----------------------------|-----------------------------|-----------------------------------|
B|-----------------------------|-----------------------------|-----------------------------------|
G|-----------------------------|-----------------------------|-----------------------------------|
D|-----------------3p0----5-7--|-----------------3p0--5-5--7-|------------------3p0----5-7-------|
A|-----------3-4-5-----3--3-5--|-----------3-4-5------3-3--5-|------------3-4-5-----3--3-5-------|
E|--0--3-5-6-------------------|--0--3-5-6-------------------|---0--3-5-6------------------------|

e|---------------------------------------|
B|---------------------------------------|
G|---------------------------------------|
D|---0--3p2p0--3p2-----------------------|
A|-----------------3-----------3---------|
E|--------------------0--3-5-6-----------|

e|-------------------------------|--------------------------------------------------------------------|
B|-------------------------------|--------------------------------------------------------------------|
G|-------------------------------|--------------------------------------------------------------------|
D|--------------------3-5-3-2~~--|-----------------3p0----5-7------0--3p2p0--3p2----------------------|
A|--------------3-4-5------------|-----------3-4-5-----3--3-5--------------------3----------3---------|
E|-----0--3-5-6------------------|--0--3-5-6---------------------------------------0--3-5-6-----------|

 Thats pretty much all you need, rawk out!


| /  slide up
| \  slide down
| h  hammer-on
| p  pull-off
| ~  vibrato
| +  harmonic
| x  Mute note
===============================================================================
Related for Act Like You Know tab