Song name
# A B C D E F G H I J K L M N O P Q R S T U V W X Y Z

Asg - Species American tab

----------------------------------------------------------------------------
		          Species American - ASG
----------------------------------------------------------------------------
Tabbed by:ibanez_prestige
Email:

Tuning: drop d

intro bass riff
G|-------------------------------------------------------------------------|
D|-------------------------------------------------------------------------|
A|----11-----------------9-11----------------------------------------------|
E|-11---11--14-13-11-x3-------9-9--11--------------------------------------|

intro guitar riff
e|-----------------------------------------------------------------------|
B|----9-----10-9-----------9----9-----------12---------------------------|
G|---------------------------------------------11------------------------|x4
D|-11---11-------x2--11------11---11-----9-------------------------------|
A|-----------------------------------------------------------------------|
E|-----------------------------------------------------------------------|

e|-------------------------------------------------------------------------|
B|-------------------------------------------------------------------------|
G|-------------------------------------------------------------------------|
D|-6--7-6----------4-4-4----6--7-6----------4-4-4-3--1~--------------------|
A|-4------7-6--x3--2-2-2----4------7-6--x3--2-2-2-1--1~--------------------|
E|---------------------------------------------------1~--------------------|
      x x x x                  x x x x
pre-verse
e|-------------------------------------------------------------------------|
B|-------------------------------------------------------------------------|
G|-------------------------------------------------------------------------|
D|--------------------------------6-6-6------------------------------------|
A|-6-9-6-6---6-9-6-6---6-9-6-6-6--4-4-4------------------------------------|
E|-------------------------------------------------------------------------|

e|-------------------------------------------------------------------------|
B|------------------------------------------(at-end-of-3rd-do-this)--------|
G|-------------------------------------------------------------------------|
D|--------------------------------6-6-6-------6-6-6-6----------------------|
A|-/9-9\6-6---6-9p6-6---6-9p6-6---4-4-4-x5----4-4-4-4----------------------|
E|-------------------------------------------------------------------------|
                                                x x
fill
e|---------------|
B|---------------|
G|---------------|
D|-9-8-6-4-3-1---|
A|-9-8-6-4-3-1---|
E|-9-8-6-4-3-1---|

verse
e|-------------------------------------------------------------------------|
B|------------------------------------------(at-end-of-2nd-do-this)--------|
G|-------------------------------------------------------------------------|
D|--------------------------------6-6-6-------6-6-6-6----------------------|
A|-/9-9\6-6---6-9p6-6---6-9p6-6---4-4-4-x3----4-4-4-4----------------------|
E|-------------------------------------------------------------------------|
                                                x x

e|-------------------------------------------------------------------------|
B|-(listen-to-the-song-for-this-part)--------------------------------------|
G|-------------------------------------------------------------------------|
D|-1-1-1-1-1-1-1-1-1-1-1-1-1-1-1-1-1-1-1-1-1-1-1-1-1-----------------------|
A|-1-1-1-1-1-1-1-1-1-1-1-1-1-1-1-1-1-1-1-1-1-1-1-1-1-----------------------|
E|-1-1-1-1-1-1-1-1-1-1-1-1-1-1-1-1-1-1-1-1-1-1-1-1-1-----------------------|
   x x x x x x x   x x x x x   x x   x x   x x   x x

fill
e|---------------|
B|---------------|
G|---------------|
D|-9-8-6-4-3-1~--|
A|-9-8-6-4-3-1~--|
E|-9-8-6-4-3-1~--|

pause(1:44-1:59)

verse
e|-------------------------------------------------------------------------|
B|-------------------------------------------------------------------------|
G|-------------------------------------------------------------------------|
D|-8---8\6--6/11-11\8-------8----------------------------------------------|
A|-6---6\4--4/4--4-\6--x2---6--about-32-times------------------------------|
E|-------------------------------------------------------------------------|

guitar I(solo)
e|----------------------------------------|
B|----9b11-9b11-9--12--11-9-11------------|
G|-/8--------------------------8----------|
D|----------------------------------------|x2
A|----------------------------------------|
E|----------------------------------------|

gutiar II(verse)
e|---------------------|
B|---------------------|
G|---------------------|x4
D|-8------6-----11-----|
A|-6-x16--4-x8---9-x8--|
E|---------------------|

chorus
e|----------------------------------------------------------------|
B|----------------------------------------------------------------|
G|----------------------------------------------------------------|
D|-1-1-1-1-1-1-1-1-1-1-1-1-1-1---11-----13-----14-----13----------|x2
A|-1-1-1-1-1-1-1-1-1-1-1-1-1-1----9-x8--11-x4--12-x3--11----------|
E|-1-1-1-1-1-1-1-1-1-1-1-1-1-1------------------------------------|
     x x x x x

guitar I(solo)
e|----------------------------------------|
B|----9b11-9b11-9--12--11-9-11------------|
G|-/8--------------------------8----------|
D|----------------------------------------|x2
A|----------------------------------------|
E|----------------------------------------|

gutiar II(verse)
e|---------------------|
B|---------------------|
G|---------------------|x4
D|-8------6-----11-----|
A|-6-x16--4-x8---9-x8--|
E|---------------------|

chorus
e|----------------------------------------------------------------|
B|----------------------------------------------------------------|
G|----------------------------------------------------------------|
D|-1-1-1-1-1-1-1-1-1-1-1-1-1-1---11-----13-----14-----13----------|x2
A|-1-1-1-1-1-1-1-1-1-1-1-1-1-1----9-x8--11-x4--12-x3--11----------|
E|-1-1-1-1-1-1-1-1-1-1-1-1-1-1------------------------------------|
     x x x x x

outro
pre-verse
e|-------------------------------------------------------------------------|
B|-------------------------------------------------------------------------|
G|-------------------------------------------------------------------------|
D|--------------------------------6-6-6------------------------------------|
A|-6-9-6-6---6-9-6-6---6-9-6-6-6--4-4-4------------------------------------|
E|-------------------------------------------------------------------------|

e|-------------------------------------------------------------------------|
B|------------------------------------------(at-end-of-3rd-do-this)--------|
G|-------------------------------------------------------------------------|
D|--------------------------------6-6-6-------6-6-6-6----------------------|
A|-/9-9\6-6---6-9p6-6---6-9p6-6---4-4-4-x4----4-4-4-4----------------------|
E|-------------------------------------------------------------------------|
                                                x x

e|-------------------------------------------------------------------------|
B|-(listen-to-the-song-for-this-part)--------------------------------------|
G|-------------------------------------------------------------------------|
D|-1-1-1-1-1-1-1-1-1-1-1-1-1-1-1-1-1-1-1-1-1-1-1-1-1-----------------------|
A|-1-1-1-1-1-1-1-1-1-1-1-1-1-1-1-1-1-1-1-1-1-1-1-1-1-----------------------|
E|-1-1-1-1-1-1-1-1-1-1-1-1-1-1-1-1-1-1-1-1-1-1-1-1-1-----------------------|
   x x x x x x x   x x x x x   x x   x x   x x   x x

fill
e|---------------|
B|---------------|
G|---------------|
D|-9-8-6-4-3-1~--|
A|-9-8-6-4-3-1~--|
E|-9-8-6-4-3-1~--|

| /  slide up
| \  slide down
| h  hammer-on
| p  pull-off
| ~  vibrato
| +  harmonic
| x  Mute note
Tap to rate this tab
 
# A B C D E F G H I J K L M N O P Q R S T U V W X Y Z