Song name
# A B C D E F G H I J K L M N O P Q R S T U V W X Y Z

Asg - Horsewhipper tab

Intro
d|-------------------------------------------------------------------------|
a|-------------------------------------------------------------------------|
f|-----------------10------------------13p12p10-13p12p10-12-10~------------|
c|---------12p10p0----12-12p10p0--x3---------------------------------------|
g|-------------------------------------------------------------------------|
c|--12-12------------------------------------------------------------------|


d|-------------------------------------------------------------------------|
a|-------------------------------------------------------------------------|
f|----------------10-----------------------------10-------10---------------|
c|-12-12--12p10p0----12-12p10p0---12-12--12p10p0----12p10------------------|
g|-12-12--------------------------12-12------------------------------------|
c|-12-12--------------------------12-12------------------------------------|


-----------------------------------------------------------------|
-----------------------------------------------------------------|
-----------------10----------------------------------------------|
--12-12--12p10p0----12-12p10p0-----5p3p0-5p3p0-5p3p0-3-----------|
--12-12----------------------------------------------------------|
--12-12----------------------------------------------------------|

Verse
d|--------------------------------------------------------------------------|
a|--------------------------------------------------------------------------|
f|--------------------------------------------------------------------------|
c|------------3-------------------3-----3--5-5------------------------------|
g|-0-0--5p3p0---5p3p0--0-0--5p3p0---5p3----3-3--5p3p0-----------------------|
c|-0-0-----------------0-0----------------------------3p0-------------------|


-----------------------------|
-----------------------------|
-----------------------------|
-5-5-------------------------|
-3-3--5p3p0-------0h3h5------|
------------0h3h5------------|x4


Chorus
d|------------------------|
a|------------------------|
f|------------------------|
c|-0------6------1--------|
g|-0------6------1--------|
c|-0-x16--6-x8---1-x8-----|x2


d|-------------------------------------------------------------------------|
a|---(strumming is fast, listen to the song to figure it out)--------------|
f|-14--17--10-12----14--17--19--10-12--------------------------------------|
c|-x---x---x--x-----x---x---x---x--x---------------------------------------|
g|-12--15--8--10----12--15--17--8--10--------------------------------------|
c|-------------------------------------------------------------------------|


Verse
d|--------------------------------------------------------------------------|
a|--------------------------------------------------------------------------|
f|--------------------------------------------------------------------------|
c|------------3-------------------3-----3--5-5------------------------------|
g|-0-0--5p3p0---5p3p0--0-0--5p3p0---5p3----3-3--5p3p0-----------------------|
c|-0-0-----------------0-0----------------------------3p0-------------------|


-----------------------------|
-----------------------------|
-----------------------------|
-5-5-------------------------|
-3-3--5p3p0-------0h3h5------|
------------0h3h5------------|x2


Chorus
d|------------------------|
a|------------------------|
f|------------------------|
c|-0------6------1--------|
g|-0------6------1--------|
c|-0-x16--6-x8---1-x8-----|x2


d|-------------------------------------------------------------------------|
a|-------------------------------------------------------------------------|
f|-14--17--10-12----14--17--19--10-12--------------------------------------|
c|-x---x---x--x-----x---x---x---x--x---------------------------------------|
g|-12--15--8--10----12--15--17--8--10--------------------------------------|
c|-------------------------------------------------------------------------|


Verse 2

d|-----------------------------------------------------------|
a|-----------------------------------------------------------|
f|-----------------------------------------10---9---5--------|
c|--------------7-5-7---------------7-5-3--10---9---5---5----|
g|-0-0-0-0-0-0--5-3-5--0-0-0-0-0-0--5-3-3--8-x6-7x6-3x6-5----|
c|-0-0-0-0-0-0---------0-0-0-0-0-0------3---------------5x6--|x2
   . . . . . .         . . . . . .


d|------------------------------------------------|
a|------------------------------------------------|
f|------------------------------10---9---5--------|
c|------------------------------10---9---5---5----|
g|------------------------------8-x6-7x6-3x6-5----|
c|-0-0-0-3-0-0-5-0-0-6-5-3--x2---------------5x6--|
   . . . . . . . . . . . .


d|-------------------------------------------------------------------------|
a|-------------------------------------------------------------------------|
f|------------------------------10---9-------------------------------------|
c|------------------------------10---9----8-7-5--8-7-5---------------------|
g|------------------------------8-x6-7x6---------------8-7-5---------------|
c|-0-0-0-3-0-0-5-0-0-6-5-3--x2-------------------------------8-7-5---------|
                                          . . .  . . . . . . . . .

Verse 1
d|--------------------------------------------------------------------------|
a|--------------------------------------------------------------------------|
f|--------------------------------------------------------------------------|
c|------------3-------------------3-----3--5-5------------------------------|
g|-0-0--5p3p0---5p3p0--0-0--5p3p0---5p3----3-3--5p3p0-----------------------|
c|-0-0-----------------0-0----------------------------3p0-------------------|


-----------------------------|
-----------------------------|
-----------------------------|
-8-7-5--8-7-5----------------|
--------------8-7-5----------|
--------------------8-7-5----|x2
 . . .  . . . . . . . . .


Breakdown
d|-----------------------------|
a|-----------------------------|
f|-----------------------------|
c|-0~---3-0~---0~---3-0--6-5~--|
g|-0~---3-0~---0~---3-0--6-5~--|
c|-0~---3-0~---0~---3-0--6-5~--|x2


d|-----------------------------------------------------------------------|
a|-----------------------------------------------------------------------|
f|--------------7/8--5/7--8-5---------------7/8--5/7-7b(on second do 10b)|
c|-0-3-0-3-5-0--7/8--5/7--8-5--0-3-0-3-5-0--7/8--5/7---------------------|
g|-0-3-0-3-5-0--5/6--3/5--6-3--0-3-0-3-5-0--5/6--3/5---------------------|
c|-0-3-0-3h5-0-----------------0-3-0-3h5-0-------------------------------|x4


d|----------------------------------------------------------------12b15r---|
a|-------------------------------------------------------------------------|
f|-----9---10--1010997799101099779-------9---10--10p9p7-7b--10p9p7---------|
c|-----7---8-----------------------------7---8-----------------------------|
g|-000---0---------------------------000---0-------------------------------|
c|-------------------------------------------------------------------------|
   ...   .                           ...   .

d|-------------------------------------------------------------------------|
a|-------------------------------------------------------------------------|
f|-----9---10--1010997799101099779------9---10-----------------------------|
c|-----7---8----------------------------7---8--8-7-5--8-7-5----------------|
g|-000---0--------------------------000---0-----------------8-7-5----------|
c|----------------------------------------------------------------8-7-5----|
   ...   .                          ...   .    . . .  . . . . . . . . .


Chorus
d|------------------------|
a|------------------------|
f|------------------------|
c|-0------6------1--------|
g|-0------6------1--------|
c|-0-x16--6-x8---1-x8-----|x2


d|-------------------------------------|
a|-------------------------------------|
f|-14--17--10-12----14--17--19--10-12--|
c|-x---x---x--x-----x---x---x---x--x---|
g|-12--15--8--10----12--15--17--8--10--|
c|-------------------------------------|


Verse 2
d|-----------------------------------------------------------|
a|-----------------------------------------------------------|
f|-----------------------------------------10---9---5--------|
c|--------------7-5-7---------------7-5-3--10---9---5---5----|
g|-0-0-0-0-0-0--5-3-5--0-0-0-0-0-0--5-3-3--8-x6-7x6-3x6-5----|
c|-0-0-0-0-0-0---------0-0-0-0-0-0------3---------------5x6--|x2
   . . . . . .         . . . . . .


d|------------------------------------------------|
a|------------------------------------------------|
f|------------------------------10---9---5--------|
c|------------------------------10---9---5---5----|
g|------------------------------8-x6-7x6-3x6-5----|
c|-0-0-0-3-0-0-5-0-0-6-5-3--x2---------------5x6--|
   . . . . . . . . . . . .


d|-------------------------------------------------------------------------|
a|-------------------------------------------------------------------------|
f|------------------------------10---9-------------------------------------|
c|------------------------------10---9----8-7-5--8-7-5---------------------|
g|------------------------------8-x6-7x6---------------8-7-5---------------|
c|-0-0-0-3-0-0-5-0-0-6-5-3--x2-------------------------------8-7-5---------|
                                          . . .  . . . . . . . . .

Verse 1
d|--------------------------------------------------------------------------|
a|--------------------------------------------------------------------------|
f|--------------------------------------------------------------------------|
c|------------3-------------------3-----3--5-5------------------------------|
g|-0-0--5p3p0---5p3p0--0-0--5p3p0---5p3----3-3--5p3p0-----------------------|
c|-0-0-----------------0-0----------------------------3p0-------------------|


-----------------------------|
-----------------------------|
-----------------------------|
-8-7-5--8-7-5----------------|
--------------8-7-5----------|
--------------------8-7-5----|
 . . .  . . . . . . . . .


d|--------------------------------------------------------------------------|
a|--------------------------------------------------------------------------|
f|--------------------------------------------------------------------------|
c|------------3-------------------3-----3--5-5------------------------------|
g|-0-0--5p3p0---5p3p0--0-0--5p3p0---5p3----3-3--5p3p0-----------------------|
c|-0-0-----------------0-0----------------------------3p0-------------------|


-------------------------------|
-------------------------------|
-------------------------------|
-8-7-5--7-8-5--------------0~--|
--------------8-7-5--------0~--|
--------------------8-7-5--0~--|
 . . .  . . . . . . . . .
Tap to rate this tab
 
# A B C D E F G H I J K L M N O P Q R S T U V W X Y Z