Song name
# A B C D E F G H I J K L M N O P Q R S T U V W X Y Z

Asg - Crosses tab

************************************
| pm  palm mute
| /   slide up
| \   slide down
| p   pull-off
| x   Mute note
| b   Bend
************************************

Intro 

(0:00-0:25)
|------------------------------------|
|------------------------------------|
|------------------------------------|
|------------------------------------|
|-7-7-7-7-7-7-7-7-7-7-7-7-7-7-7-7/10-|
|-0-0-0-0-0-0-0-0-0-0-0-0-0-0-0-0----|
 
                           1.2.3.          4.
|-------------------------|---------------|---------|
|-------------------------|---------------|---------|
|-------------------------|---------------|---------|
|-------------------------|---------------|---------|
|-10-10-10-10-10-10-10-10-|-9-9-9-9-8-8-8-|-9-9-9-9-|
|-0--0--0--0--0--0--0--0--|-0-0-0-0-0-0-0-|-0-0-0-0-|

(0:25-0:50)
|---------------------------------|
|---------------------------------|
|-9-9-9-9-9-9-9-9-9-9-9-9-9-9-9-9-|
|-9-9-9-9-9-9-9-9-9-9-9-9-9-9-9-9-|
|-7-7-7-7-7-7-7-7-7-7-7-7-7-7-7-7-|
|---------------------------------|

                                       1.2.        3.       4.
                                        pm------|
|-------------------------------------|-----------|--------|--------|
|-------------------------------------|-----------|--------|--------|
|-12-12-12-12-12-12-12-12-11-11-11-11-|-10-10-10--|-x-x-x--|--------|
|-12-12-12-12-12-12-12-12-11-11-11-11-|-10-10-10--|-x-x-x--|--------|
|-10-10-10-10-10-10-10-10-9--9--9--9--|-8--8--8---|-x-x-x--|--------|
|-------------------------------------|-----------|--------|-12\----|

(0:50-1:03)

|-------------------------------------------------------------------|
|-------------------------------------------------------------------|
|---------------------------------------------------7-7-------------|
|-----9-9-10-10-----9-9-----------------4-4-5-5-4-4-----4-4-7---4-5-|
|---------------------------10-9-10-5-5-----------------------5-----|
|-0-0-----------0-0-----0-0-----------------------------------------|

|-------------------------------------------------------------------|
|-------------------------------------------------------------------|
|---------------------------------------------------7-7-------------|
|-----9-9-10-10-----9-9-----------------4-4-5-5-4-4-----4-4-7\------|
|---------------------------10-9-10-5-5-----------------------------|
|-0-0-----------0-0-----0-0-----------------------------------------|

Verse

(1:03-1:28)
                                                                                
    pm-------------------------|  ---|  
|-------------------------------------|
|-------------------------------------|
|-9-9-9-9-9-9-9-9-9-9-9-9-9-9-9-7-7-7-|
|-9-9-9-9-9-9-9-9-9-9-9-9-9-9-9-7-7-7-|
|-7-7-7-7-7-7-7-7-7-7-7-7-7-7-7-5-5-5-|
|-------------------------------------|

 1.3.                2.                   4.
                        pm-|  ---|  -|       pm-|
|-------------------|--------------------|---------------|
|-------------------|--------------------|---------------|
|-12-x-x-11-x-x-7-x-|-7-7-7-7-7-7-7-7----|-7-7-7-7-7-7-7-|
|---------------7-x-|-7-7-7-7-7-7-7-7----|-7-7-7-7-7-7-7-|
|-10-x-x-9--x-x-5-x-|-5-5-5-5-5-5-5-5----|-5-5-5-5-5-5-5-|
|-------------------|--------------------|---------------|

(1:28-1:41)

|-------------------------------------------------------------------|
|-------------------------------------------------------------------|
|---------------------------------------------------7-7-------------|
|-----9-9-10-10-----9-9-----------------4-4-5-5-4-4-----4-4-7---4-5-|
|---------------------------10-9-10-5-5-----------------------5-----|
|-0-0-----------0-0-----0-0-----------------------------------------|

|-------------------------------------------------------------------|
|-------------------------------------------------------------------|
|---------------------------------------------------7-7-------------|
|-----9-9-10-10-----9-9-----------------4-4-5-5-4-4-----4-4-7\------|
|---------------------------10-9-10-5-5-----------------------------|
|-0-0-----------0-0-----0-0-----------------------------------------|

(1:41-2:07)

                                                     
    pm-------------------------|  ---|  
|-------------------------------------|
|-------------------------------------|
|-9-9-9-9-9-9-9-9-9-9-9-9-9-9-9-7-7-7-|
|-9-9-9-9-9-9-9-9-9-9-9-9-9-9-9-7-7-7-|
|-7-7-7-7-7-7-7-7-7-7-7-7-7-7-7-5-5-5-|
|-------------------------------------|

 1.3.                2.                          4.
                         pm--|    ----|    -|        ----|
|-------------------|---------------------------|---------------------|
|-------------------|---------------------------|---------------------|
|-12-x-x-11-x-x-7-x-|-7--7--7--7--7--7--7--7----|-7--7--7--7--7--7--7-|
|---------------7-x-|-7--7--7--7--7--7--7--7----|-7--7--7--7--7--7--7-|
|-10-x-x-9--x-x-5-x-|-5--5--5--5--5--5--5--5----|-5--5--5--5--5--5--5-|
|-------------------|---------------------------|---------------------|

(2:07-2:28)

                    pm-----|    ----|
|--------------------------------------------------------------------|
|--------------------------------------------------------------------|
|-5--5--5--5--5--5--5--5--5--7--7--7--9--9--9--9--9------------------|
|-5--5--5--5--5--5--5--5--5--7--7--7--9--9--9--9--9-10-9-------------|
|-3--3--3--3--3--3--3--3--3--5--5--5--7--7--7--7--7------10-7-9-10-0-|
|--------------------------------------------------------------------|

                    pm-----|    ----|
|------------------------------------------------------------------------------|
|------------------------------------------------------------------------------|
|-5--5--5--5--5--5--5--5--5--7--7--7--9--9--9--9--9----------------------------|
|-5--5--5--5--5--5--5--5--5--7--7--7--9--9--9--9--9-10-10-10-10-9-9-9-9--------|
|-3--3--3--3--3--3--3--3--3--5--5--5--7--7--7--7--7---------------------10-9-7-|
|------------------------------------------------------------------------------|

                    pm-----|    ----|
|-------------------------------------------------------------------------|
|-------------------------------------------------------------------------|
|-5--5--5--5--5--5--5--5--5--7--7--7--9--9--9--7--7--7--5--5--5--5--5-----|
|-5--5--5--5--5--5--5--5--5--7--7--7--9--9--9--7--7--7--5--5--5--5--5-----|
|-3--3--3--3--3--3--3--3--3--5--5--5--7--7--7--5--5--5--3--3--3--3--3-----|
|---------------------------------------------------------------------12\-|

(2:28-2:41)
                                 4x
|---------------------------------|
|o-------------------------------o|
|---------------------------------|
|0-------------------------------o|
|--0-0-0-0-0-0-0-0-0-0-0-0-0-10b--|



(2:43-2:54)

     pm--------------------------------------|    ----------------------------------------|  
|------------------------------------------------------------------------------------------|
|------------------------------------------------------------------------------------------|
|-9--9--9--9--9--9--9--9--9--9--9--9--9--9--9--7--7--7--7--7--7--7--7--7--7--7--7--7--7--7-|
|-9--9--9--9--9--9--9--9--9--9--9--9--9--9--9--7--7--7--7--7--7--7--7--7--7--7--7--7--7--7-|
|-7--7--7--7--7--7--7--7--7--7--7--7--7--7--7--5--5--5--5--5--5--5--5--5--5--5--5--5--5--5-|
|------------------------------------------------------------------------------------------|

     pm--------------------------------------|    -------------------|  
|-------------------------------------------------------------------------15-19------------|
|------------------------------------------------------------------------------------------|
|-9--9--9--9--9--9--9--9--9--9--9--9--9--9--9--7--7--7--7--7--7--7--7--19------------------|
|-9--9--9--9--9--9--9--9--9--9--9--9--9--9--9--7--7--7--7--7--7--7--7----------------------|
|-7--7--7--7--7--7--7--7--7--7--7--7--7--7--7--5--5--5--5--5--5--5--5----------------------|
|------------------------------------------------------------------------------------------|


     pm--------------------------------------|    ----------------------------------------|  
|------------------------------------------------------------------------------------------|
|------------------------------------------------------------------------------------------|
|-9--9--9--9--9--9--9--9--9--9--9--9--9--9--9--7--7--7--7--7--7--7--7--7--7--7--7--7--7--7-|
|-9--9--9--9--9--9--9--9--9--9--9--9--9--9--9--7--7--7--7--7--7--7--7--7--7--7--7--7--7--7-|
|-7--7--7--7--7--7--7--7--7--7--7--7--7--7--7--5--5--5--5--5--5--5--5--5--5--5--5--5--5--5-|
|------------------------------------------------------------------------------------------|


     pm--------------------------------------|    -------------------|  
|------------------------------------------------------------------------------------------|
|------------------------------------------------------------------------------------------|
|-9--9--9--9--9--9--9--9--9--9--9--9--9--9--9--7--7--7--7--7--7--7--7--7--7--7--7--7--7--7-|
|-9--9--9--9--9--9--9--9--9--9--9--9--9--9--9--7--7--7--7--7--7--7--7--7--7--7--7--7--7--7-|
|-7--7--7--7--7--7--7--7--7--7--7--7--7--7--7--5--5--5--5--5--5--5--5--5--5--5--5--5--5--5-|
|------------------------------------------------------------------------------------------|


(3:08-3:30)
                    pm-----|    ----|
|--------------------------------------------------------------------|
|--------------------------------------------------------------------|
|-5--5--5--5--5--5--5--5--5--7--7--7--9--9--9--9--9------------------|
|-5--5--5--5--5--5--5--5--5--7--7--7--9--9--9--9--9-10-9-------------|
|-3--3--3--3--3--3--3--3--3--5--5--5--7--7--7--7--7------10-7-9-10-0-|
|--------------------------------------------------------------------|

                    pm-----|    ----|
|------------------------------------------------------------------------------|
|------------------------------------------------------------------------------|
|-5--5--5--5--5--5--5--5--5--7--7--7--9--9--9--9--9----------------------------|
|-5--5--5--5--5--5--5--5--5--7--7--7--9--9--9--9--9-10-10-10-10-9-9-9-9--------|
|-3--3--3--3--3--3--3--3--3--5--5--5--7--7--7--7--7---------------------10-9-7-|
|------------------------------------------------------------------------------|

                    pm-----|    ----|
|-------------------------------------------------------------------------|
|-------------------------------------------------------------------------|
|-5--5--5--5--5--5--5--5--5--7--7--7--9--9--9--7--7--7--5--5--5--5--5-----|
|-5--5--5--5--5--5--5--5--5--7--7--7--9--9--9--7--7--7--5--5--5--5--5-----|
|-3--3--3--3--3--3--3--3--3--5--5--5--7--7--7--5--5--5--3--3--3--3--3-----|
|---------------------------------------------------------------------12\-|


(3:30-3:43)

Gt.I

|-------------------------------------------------------------------|
|-------------------------------------------------------------------|
|---------------------------------------------------7-7-------------|
|-----9-9-10-10-----9-9-----------------4-4-5-5-4-4-----4-4-7---4-5-|
|---------------------------10-9-10-5-5-----------------------5-----|
|-0-0-----------0-0-----0-0-----------------------------------------|

|-------------------------------------------------------------------|
|-------------------------------------------------------------------|
|---------------------------------------------------7-7-------------|
|-----9-9-10-10-----9-9-----------------4-4-5-5-4-4-----4-4-7\------|
|---------------------------10-9-10-5-5-----------------------------|
|-0-0-----------0-0-----0-0-----------------------------------------|

Gt.II

|-------------------------------------------------------------------|
|-------------------------------------------------------------------|
|-12-12-11-11-9-9-----------------------------11-11-------9---------|
|-----------------12-12-10-10-9-7-9-7-7-12-12-------12-12-----------|
|-------------------------------------------------------------------|
|-------------------------------------------------------------------|

|-------------------------------------------------------------------|
|-------------------------------------------------------------------|
|-12-12-11-11-9-9-----------------------------11-11-----------------|
|-----------------12-12-10-10-9-7-9-7-7-12-12-------12-12-----------|
|-------------------------------------------------------------------|
|-------------------------------------------------------------------|

(3:43-3:55)

                 pm-------------|
|---------------------------------------------------------------|
|---------------------------------------------------------------|
|-5--5--5--5--5-------------------------------------------------|
|-5--5--5--5--5--10-9-------------------------------------------|
|-3--3--3--3--3-------10-9-5-4-5-------------------------3-2-0--|
|--------------------------------0-0-2-2-3-3-2-2-5-5-3-3--------|

                 pm-------------|
|-----------------------------------------------------------------------------------|
|-----------------------------------------------------------------------------------|
|-5--5--5--5--5---------------------------------------------------------------------|
|-5--5--5--5--5--10-9---------------------------------------------------------------|
|-3--3--3--3--3-------10-9-5-4-5---------------------------------------------3-2-0--|
|--------------------------------0-0-2-2-2-2-3-3-3-3-2-2-2-2-5-5-5-5-3-3-3-3--------|

(3:55-4:17)

Gt.I
                    pm-----|    ----|       -------|       -------|                      -------|
|----------------------------------------------------------------------------------------------------|
|----------------------------------------------------------------------------------------------------|
|-5--5--5--5--5--5--5--5--5--7--7--7--9--9--9--9--9--7--7--7--7--7--5--5--5--5--5--5--5--------------|
|-5--5--5--5--5--5--5--5--5--7--7--7--9--9--9--9--9--7--7--7--7--7--5--5--5--5--5--5--5--2--2--2--2--|
|-3--3--3--3--3--3--3--3--3--5--5--5--7--7--7--7--7--5--5--5--5--5--3--3--3--3--3--3--3--2--2--2--2--|
|----------------------------------------------------------------------------------------0--0--0--0--|

Gt.II
         
|----------------------------------------------------------------------------------------------------|
|-------------------------------------5b-------------8b-------------5b----------------------------0--|
|--------------------------------7p4--7b-------------10b------------7b----------------------------2b-|
|----------------------------------------------------------------------------------------------------|
|----------------------------------------------------------------------------------------------------|
|----------------------------------------------------------------------------------------------------|
Tap to rate this tab
 
# A B C D E F G H I J K L M N O P Q R S T U V W X Y Z