Guitaretab - guitar tabs
Song name
# A B C D E F G H I J K L M N O P Q R S T U V W X Y Z
Home / A / Asg / Crosses tab

Asg - Crosses tab

ASG - Crosses

Tuning: Drop D

Key
T = Tremelo Picking
x = Mute


|------------------------------------------------------------------|
|------------------------------------------------------------------|
|------------------------------------------------------------------| X 4
|------------------------------------------------------------------|
|------------------------------------------------------------------|
|-1-1-1-1-1-1-1-1-1-1-1-1-1-1-1-4-4-4-4-4-4-4-4-3-3-3-3-1-1-1-0----|

|------------------------------------------------------------------|
|------------------------------------------------------------------|
|------------------------------------------------------------------| X 4
|------------------------------------------------------------------|
|-1-1-1-1-1-1-1-1-1-1-1-1-1-1-1-4-4-4-4-4-4-4-4-3-3-3-3-x-x-x-0----|
|-1-1-1-1-1-1-1-1-1-1-1-1-1-1-1-4-4-4-4-4-4-4-4-3-3-3-3-x-x-x-0----|

|------------------------------------------------------------------|
|------------------------------------------------------------------|
|-3-3-4-4-----3-3----------------------------6-6-------------------| X 2
|---------1-1-----1-1-4-3-4------3-3-4-4-3-3------3-3-6---3-4------|
|----------------------------4-4------------------------4----------|
|------------------------------------------------------------------|

|------------------------------------------------------------------|
|------------------------------------------------------------------|
|------------------------------------------------------------------| X 4
|-1-1-1-1-1-1-1-1-1-1-1-1-1-1-------7------9------5-----3----------|
|-1-1-1-1-1-1-1-1-1-1-1-1-1-1-------5------7------3-----1----------|
|-1-1-1-1-1-1-1-1-1-1-1-1-1-1----0-----0------0------0-------------|

|------------------------------------------------------------------|
|------------------------------------------------------------------|
|-3-3-4-4-----3-3----------------------------6-6-------------------| X 2
|---------1-1-----1-1-3-4-3------3-3-4-4-3-3------3-3-6---3-4------|
|---------------------------4-4-------------------------4----------|
|------------------------------------------------------------------|

|------------------------------------------------------------------|
|------------------------------------------------------------------|
|------------------------------------------------------------------| X 4
|-1-1-1-1-1-1-1-1-1-1-1-1-1-1--------7-------9--------5-----3------|
|-1-1-1-1-1-1-1-1-1-1-1-1-1-1--------5-------7--------3-----1------|
|-1-1-1-1-1-1-1-1-1-1-1-1-1-1---0-0----0-0-----0-0------0----------|

|------------------------------------------------------------------|
|------------------------------------------------------------------|
|------------------------------------------------------------------|
|-1-1-1-1-1-1-5-xx-5-xx-5-5-5-5------------------------------------|
|-1-1-1-1-1-1-5-xx-5-xx 5-5-5-5------------------------------------|
|-1-1-1-1-1-1-5-xx-5-xx-5-5-5-5------------------------------------|

|------------------------------------------------------------------| 
|------------------------------------------------------------------|
|------------------------------------------------------------------|
|-12-11-10-11-15-10-11---------------------------------------------|
|--------------------------- 14------------------------------------|
|------------------------------------------------------------------|

|------------------------------------------------------------------|
|------------------------------------------------------------------|
|------------------------------------------------------------------|
|-1-1-1-1-1-1-5-xx-5-xx-5-5-5-5------------------------------------|
|-1-1-1-1-1-1-5-xx-5-xx 5-5-5-5------------------------------------|
|-1-1-1-1-1-1-5-xx-5-xx-5-5-5-5------------------------------------|

|------------------------------------------------------------------|
|------------------------------------------------------------------|
|------------------------------------------------------------------|
|-15T-14T-13T------------------------------------------------------|
|---------------15-14-14-------------------------------------------|
|------------------------------------------------------------------|

|------------------------------------------------------------------|
|------------------------------------------------------------------|
|------------------------------------------------------------------|
|-1-1-1-1-1-1-5-xx-5-xx-5-5-5-5------------------------------------|
|-1-1-1-1-1-1-5-xx-5-xx 5-5-5-5------------------------------------|
|-1-1-1-1-1-1-5-xx-5-xx-5-5-5-5------------------------------------|

|------------------------------------------------------------------|
|------------------------------------------------------------------|
|------------------------------------------------------------------|
|-1-1-1-1-1-5-xx-7\5---7\5-5-5-5-5-5-5-5-5-5-5/7-------------------|
|-1-1-1-1-1-5-xx-7\5---7\5-5-5-5-5-5-5-5-5-5-5/7-------------------|
|-1-1-1-1-1-5-xx-7\5-0-7\5-5-5-5-5-5-5-5-5-5-5/7-------------------|
[ Tab from: http://www.guitaretab.com/a/asg/64050.html ]
|------------------------------------------------------------------|
|------------------------------------------------------------------|
|------------------------------------------------------------------|
|-5-5-5-5-5-5-5-5-5-5-5-5/9----------------------------------------|
|-5-5-5-5-5-5-5-5-5-5-5-5/9----------------------------------------|
|-5-5-5-5-5-5-5-5-5-5-5-5/9-5--------------------------------------|

|------------------------------------------------------------------|
|------------------------------------------------------------------|
|------------------------------------------------------------------|
|--5-1-1-1-1-1-1-1-1-1-1-1-1-1-1-1-1--5----------------------------|
|--5-1-1-1-1-1-1-1-1-1-1-1-1-1-1-1-1--5----------------------------|
|--5-1-1-1-1-1-1-1-1-1-1-1-1-1-1-1-1--5----------------------------|


|------------------------------------------------------------------|
|------------------------------------------------------------------|
|------------------------------------------------------------------| X 2
|-1-1-1-1-1-1-1-1-1-1-1-1-1-1-1-1--5-------------------------------|
|-1-1-1-1-1-1-1-1-1-1-1-1-1-1-1-1--5-------------------------------|
|-1-1-1-1-1-1-1-1-1-1-1-1-1-1-1-1--5-------------------------------|

|------------------------------------------------------------------|
|------------------------------------------------------------------|
|------------------------------------------------------------------|
|-1-1-1-1-1-1-1-12-13-14-18----------------------------------------|
|-1-1-1-1-1-1-1----------------------------------------------------|
|-1-1-1-1-1-1-1----------------------------------------------------|

|------------------------------------------------------------------|
|------------------------------------------------------------------|
|------------------------------------------------------------------|
|--5-1-1-1-1-1-1-1-1-1-1-1-1-1-1-1-1--5----------------------------|
|--5-1-1-1-1-1-1-1-1-1-1-1-1-1-1-1-1--5----------------------------|
|--5-1-1-1-1-1-1-1-1-1-1-1-1-1-1-1-1--5----------------------------|

|------------------------------------------------------------------|
|------------------------------------------------------------------|
|------------------------------------------------------------------|
|-1-1-1-1-1-1-1-1-1-1-1-1-1-1-1-1--5-------------------------------| X 3
|-1-1-1-1-1-1-1-1-1-1-1-1-1-1-1-1--5-------------------------------|
|-1-1-1-1-1-1-1-1-1-1-1-1-1-1-1-1--5-------------------------------|

|------------------------------------------------------------------|
|------------------------------------------------------------------|
|------------------------------------------------------------------|
|-1-1-1-1-1-1-5-xx-5-xx-5-5-5-5------------------------------------|
|-1-1-1-1-1-1-5-xx-5-xx 5-5-5-5------------------------------------|
|-1-1-1-1-1-1-5-xx-5-xx-5-5-5-5------------------------------------|

|------------------------------------------------------------------| 
|------------------------------------------------------------------|
|------------------------------------------------------------------|
|-12-11-10-11-15-10-11---------------------------------------------|
|--------------------------- 14------------------------------------|
|------------------------------------------------------------------|

|------------------------------------------------------------------|
|------------------------------------------------------------------|
|------------------------------------------------------------------|
|-1-1-1-1-1-1-5-xx-5-xx-5-5-5-5------------------------------------|
|-1-1-1-1-1-1-5-xx-5-xx 5-5-5-5------------------------------------|
|-1-1-1-1-1-1-5-xx-5-xx-5-5-5-5------------------------------------|



|------------------------------------------------------------------|
|------------------------------------------------------------------|
|------------------------------------------------------------------|
|-15T-14T-13T------------------------------------------------------|
|---------------15-14-14---------------------------------------------|
|------------------------------------------------------------------|

|------------------------------------------------------------------|
|------------------------------------------------------------------|
|------------------------------------------------------------------|
|-1-1-1-1-1-1-5-xx-5-xx-5-5-5-5------------------------------------|
|-1-1-1-1-1-1-5-xx-5-xx 5-5-5-5------------------------------------|
|-1-1-1-1-1-1-5-xx-5-xx-5-5-5-5------------------------------------|

|------------------------------------------------------------------|
|------------------------------------------------------------------|
|------------------------------------------------------------------|
|-1-1-1-1-1-5-xx-7\5---7\5-5-5-5-5-5-5-5-5-5-5/7-------------------|
|-1-1-1-1-1-5-xx-7\5---7\5-5-5-5-5-5-5-5-5-5-5/7-------------------|
|-1-1-1-1-1-5-xx-7\5-0-7\5-5-5-5-5-5-5-5-5-5-5/7-------------------|

Im no where near to figuring out the solo but i will try to and post it up as a solo later.

Tabbed by Robert Sanderson
Related for Crosses tab