Song name
# A B C D E F G H I J K L M N O P Q R S T U V W X Y Z

Asg - Southern Lord tab

Southern Lord - Asg

1/2 step down

((Volume swell))

intro
e|-----------------------------------------------------------------------------------|
B|-----------------------------------------------------------------------------------|
G|------------------------------------------------12---------------------------------|
D|--2---9-10-9h10p9-----------------------9----9---------12--------------------12-9--|
A|--2----------------------9-10-9---10-10---10-------10---------------9----9---------|
E|--0-----------------000--7-8--7-------------------------------10-10----10----------|
                      xxx            x  x   x         x          x  x     x    
pre-verse
e|-----------------------------------|-------------------------|
B|-----------------------------------|-------------------------|
G|-----------------------------------|-------------------------|
D|-----------------------------------|-------------------------|
A|-----------------------------------|--5--8--7--12\-----------|
E|---000-12-000-15-000-12-14-15------|--3--6--5--10\-----------|

verse
e|--------------------|------------------------|
B|--------------------|------------------------|
G|--------------------|------------------------|
D|--------------------|------------------------|
A|---2---5-7--5h7h5---|---5-8-7--12\-----------|
E|---0----------------|---3-6-5--10\-----------|

chorus
e|-----------------|----------|------------------------------------------------|
B|-----------------|----------|------------------------------------------------|
G|-----------------|----------|------------------------------------------------|
D|-2-------9----12-|----------|----------------------------------------------------|
A|-2-------7----10-|-7-8-7--5-|--------------------------------------------------------|
E|-0-000-----00----|-5-6-5--3-|-\5--6--5-----------------------------------------------------|
     xxx     xx                    ^tremelo picking  

solo(all tremelo picking [not shown])
e|------|-------------------------|
B|------|-------------------------|
G|------|-------------------------|
D|------|------14-----------------|
A|------|--14-------9--9h12p9-----|
E|--12--|---------------------10--|

solo(cont. no tremelo)
e|---------------------------------------------------------------------------------------|
B|---------------------------------------------------------------------------------------|
G|---------------------------------------------------------------------------------------|
D|----------------------------------------------------12-13-14-----------12-13-14--------|
A|------------14-14-14------------14-14-14---12-13-14-----------12-13-14-----------------|
E|--12-12-12------------12-12-12---------------------------------------------------------|

e|-----------------|------------------------------------------------|
B|-----------------|------------------------------------------------|
G|-----------------|------------------------------------------------|
D|-----------------|------------------------------------------------|
A|-9999-9h12p9-----|--12/-14-14-14--12/--14-14-14--12-12-12---------|
E|-------------10--|--10/-12-12-12--10/--12-12-12--10-10-10---------|

outro
e|---------------------------------------------------------|
B|---------------------------------------------------------|
G|---------------------------------------------------------|
D|-2----9----------------------2-----9---------------------|
A|-2----7-----8----------------2-----7----8--7777-5--------|
E|-0-00---00--6--6-5-5h6p5-4---0--00---00-6--5555-3--------|
     xx   xx                      xx   xx    xxxx



Tap to rate this tab
 
# A B C D E F G H I J K L M N O P Q R S T U V W X Y Z