Guitaretab - guitar tabs
Song name
# A B C D E F G H I J K L M N O P Q R S T U V W X Y Z

Asg - Feeling Good Is Good Enough tab

-------------------------------------------------------------------------------
			     ASG - Feeling Good is Good Enough
-------------------------------------------------------------------------------


Tuning:DADGBe

For now im only gonna post what I know, then I'll update.
[ Tab from: http://www.guitaretab.com/a/asg/68081.html ]
Intro:
e|-----|---------------------------------|
B|-----|---------------------------------|
G|--10-|--10-x--7------------------------|
D|--x--|--x--x--x------------------------|
A|--8--|--8--x--5---10b12----------------|
E|-----|---------------------------------|

Verse:
e|-----------------------|------------|-----------------------|
B|-----------------------|------------|-----------------------|
G|-----------------------|---/5-------|---7-------------------|
D|----------------0-0-0--|---/5-------|---7-------------------|
A|---3-5-3--------0-0-0--|---/3-------|---5-------------------|
E|---------3b4-0--0-0-0--|-------3-0--|------5--3-------------|
Related for Feeling Good Is Good Enough tab