Song name
# A B C D E F G H I J K L M N O P Q R S T U V W X Y Z

Asg - Time Flies High tab

Help us improve GuitareTab! Take a short survey!
-------------------------------------------------------------------------------
			     ASG - Time Flies High
-------------------------------------------------------------------------------


Tuning:1/2 step dpwn

intro/verse:(for verse play x/pout p.m.'s)
                          x2                              x2
e|------------------------|-------------------------------|
B|------------------------|-------------------------------|
G|--4-----4-----4-4-4-3-3-|---2------2-----1-1------------|
D|--4-----4-----4-4-4-4-4-|---2------2-----2-2--2-2-------|
A|--2-222-2-222-2-2-2-2-2-|---0-000--0-000-0-0--2-2-------|
E|------------------------|---------------------0-0-------|
      xxx   xxx                 xxx    xxx
fill
"I Just can't feel..."
e|---------------|
B|---------------|
G|--7------------|
D|--7--6--2------|
A|--5--6--2------|
E|-----4--0------|

chorus:
"As Time Flies High..."
e|-----------------------------------------|
B|-----------------------------------------|
G|----------------------14-14--13--9-------|
D|----7-----7/-9-9\--2--x--x---x---x-------|
A|----7-----7/-9-9\--2--12-12--11--7-------|
E|----5-777-5/-7-7\--0---------------------|
 
chorus con't:
"When No one's around..."  "...to see these tears."
e|-----------------------|-------------------------|
B|-----------------------|-------------------------|
G|-----------------------|-------------------------|
D|--7-7--6-2-------------|--4--7--into verse-------|
A|--7-7--6-2-------------|--4--7-------------------|
E|--5-5--4-0-------------|--2--5-------------------|
                             *strummed

bridge:
                                           x3          x1
e|-----------------------------|------------|-----------|------------|-----------|
B|-----------------------------|------------|-----------|------------|-----------|
G|--4--4----------2--2---------|----4-4-----|---4-4-5--4|----2-2-----|---2-2-3-2-|
D|--4-----4b5r4---2-------2----|---4---4----|--4--------|---2---2----|--2--------|
A|--2-------------0---------0--|--2-----2-2-|-2---------|--0-----0-0-|-0---------|
E|-----------------------------|------------|-----------|------------|-----------|

That's it enjoy!

| /  slide up
| \  slide down
| h  hammer-on
| p  pull-off
| ~  vibrato
| +  harmonic
| x  Mute note
===============================================================================
Related for Time Flies High tab