Guitaretab - guitar tabs
Song name
# A B C D E F G H I J K L M N O P Q R S T U V W X Y Z

Asg - Pillage And The Plunder tab

-------------------------------------------------------------------------------
	The Pillage and the Plunder - ASG
-------------------------------------------------------------------------------
Most of this tab is 100% except I don't the bridge.

Tuning:1/2 step down

intro                    vpinch harmonic
e|---------------------|------|------------------------|
B|---------------------|------|------------------------|
G|---------------------|------|------------------------|
D|---------------------|------|------------------------|
A|------7777-55-88-77--|-8*---|------------------------|
E|-0-0-----------------|------|---3h5-5555-6-6--1-1----|
[ Tab from: http://www.guitaretab.com/a/asg/78490.html ]
e|---------------------------------|
B|---------------------------------|
G|---------------------------------|
D|---5/-7-7-7-7--8-8--7-7--5-7-----|
A|---5/-7-7-7-7--8-8--7-7--5-7-----|
E|---3/-5-5-5-5--6-6--5-5--3-5-----|

outro
e|--------------------------------------|--------------1-0------------------3-0---|
B|--------------------------------------|-----------------------------------------|
G|------2-------0--------0--------------|-----------------------------------------|
D|----2-------0--------2----------------|-------3---3----------------5---5--------|
A|--0-----0h2------2h3------3----5\-----|---------3----------3---------5----------|
E|--------------------------------------|---0-1------------------1/3--------------|



| /  slide up
| \  slide down
| h  hammer-on
| p  pull-off
| ~  vibrato
| +  harmonic
| x  Mute note
===============================================================================
Related for Pillage And The Plunder tab