Guitaretab - guitar tabs
Song name
# A B C D E F G H I J K L M N O P Q R S T U V W X Y Z

Asg - Act Like You Know tab

riff 1
  intro/verse   pm..........
E-------------------------------|(2x)
B-------------------------------|
G-------------------------------|
D--10-10-10--7-7-7-7-7-7-7-7----|
A--10-10-10--7-7-7-7-7-7-7-7----|
E--8--8--8---5-5-5-5-5-5-5-5----|
[ Tab from: http://www.guitaretab.com/a/asg/82719.html ]
riff 2
Chorus
E-----------------------------|(1x)
B-----------------------------|
G-----------------------------|
D-9-(6x)-----7-(6x)-----------|
A-7----------5--------9-(8x)--|
E---------------------7-------|

riff 3

bridge or interlude or sumthin'
E----------------------|
B----------------------|
G----------------------|
D-----------9-9-9-9-9-9|
A--7(16x)---7-7-7-7-7-7|
E--5-------------------|

riff 1(after spoken word intro)
riff 2
riff 1
riff 2
riff 3
riff 1(5x)
end
____________________________________________________________________________

for the record i didn't make this, this is copypasta from some other tab site.....
Related for Act Like You Know tab