Guitaretab - guitar tabs
Song name
# A B C D E F G H I J K L M N O P Q R S T U V W X Y Z

Asg - Cracks In The Sky tab

ASG
Cracks In The Sky
Feeling Good is Good Enough


e) --------------------------|
b) ------------6-----------3-|
g) -------------7--5---3--5--|
d) -5-8p7p5-8-5--5---5-------|
a) --------------------------|
d) 5-------------------------|

e) -------------------------------|
b) ------------6------------------|
g) -------------7--5br--3-3h5-3---|
d) -5-8p7p5-8-5--5--------------5-|
a) -------------------------------|
d) 5------------------------------|

e) --------------------------|
b) ------------6-----------3-|
g) -------------7--5---3--5--|
d) -5-8p7p5-8-5--5---5-------|
a) --------------------------|
d) 5-------------------------|
[ Tab from: http://www.guitaretab.com/a/asg/89151.html ]
e) --------------------------------|
b) -------------6------------------|
g) -------------------------3------|
d) -5-8p7p5-8-5--------3-3h5-----3-|
a) ---------------3-3h5-------3h5--|
d) 5-------------------------------|

The chords the first time through the verse are:

D     C     G     A
The second time:

D     C     G     D

the walk-down thing:

e)----------------------------|
b)----------------------------|
g)----------------------------|
d)-5-5-5-5-5-5-5-5-4-3------5-|
a)--------------------5-4-3-5-|
d)--------------------------5-|

a couple times during the verses this is played:

Bb     C     D

play the solo in the key of G
Related for Cracks In The Sky tab