Song name
# A B C D E F G H I J K L M N O P Q R S T U V W X Y Z

Ash Grunwald - The Last Stand tab

--------------------------------------------------------
             The Last Stand - ASH GRUNWALD
 (and Scott Owen and Andy Strachan from the Living End)
--------------------------------------------------------

Drop D

Main Riff Repeated:

e|--------------------------------------|
B|--------------------------------------|
G|--------------------------------------|
D|-0-0-12-0-10-12-0-0-6-0-0-5-0-0-3h5---|
A|-0-0-12-0-10-12-0-0-6-0-0-5-0-0-3h5---|
D|-0-0-12-0-10-12-0-0-6-0-0-5-0-0-3h5---|

e|--------------------------------------|
B|--------------------------------------|
G|--------------------------------------|
D|-0-0-12-0-10-12-0-0-10-0-0-10-0-0-15~-|
A|-0-0-12-0-10-12-0-0-10-0-0-10-0-0-15~-|
D|-0-0-12-0-10-12-0-0-10-0-0-10-0-0-15~-|



Other Riffs Added in at certain points:
(figure out for yourself)


e|--------------------------------------|
B|--------------------------------------|
G|--------------------------------------|
D|-0-0-12-0-10-12-0-0-6-0-0-5-0-0-15~---|
A|-0-0-12-0-10-12-0-0-6-0-0-5-0-0-15~---|
D|-0-0-12-0-10-12-0-0-6-0-0-5-0-0-15~---|



e|--------------------------------------|
B|--------------------------------------|
G|--------------------------------------|
D|-0-0-12-0-10-12-0-0-6-0-0-5-0-0-3-----|
A|-0-0-12-0-10-12-0-0-6-0-0-5-0-0-3-----|
D|-0-0-12-0-10-12-0-0-6-0-0-5-0-0-3-----|


There are some bends post chorus, not too sure how to replicate them, if anyone has any 
suggestions I will add them - just post below.

See them play on Triple J's Like a Version - http://www.youtube.com/watch?v=5uCmoVmAWS4

Ash Grunwald - http://www.ashgrunwald.com/
Tap to rate this tab
# A B C D E F G H I J K L M N O P Q R S T U V W X Y Z