Song name
# A B C D E F G H I J K L M N O P Q R S T U V W X Y Z

Ash - Thinking About You tab

----------------------------------------------------------------------------
	Thinking About You - Ash
----------------------------------------------------------------------------
Album: Cosmic Debris

Tabbed by: srsn
Email: srsn_61@hotmail.com

Tuning: standard

Intro:
  D (X 4)
e|-------2-------|
B|-----3---3---3-|
G|---2-------2---|
D|-0-------------|
A|---------------|
E|---------------|

Verse:
  D (X 2)        Em (X 2)        A (X 2)         D (X 2)
e|-------2------|-------0-------|-------0-------|-------2-------|
B|-----3---3--3-|-----0---0---0-|-----2---2---2-|-----3---3---3-|
G|---2-------2--|---0-------0---|---2-------2---|---2-------2---| (X 2)
D|-0------------|---------------|---------------|-0-------------|
A|--------------|---------------|-0-------------|---------------|
E|--------------|-0-------------|---------------|---------------|

Chorus:
  Em              Bm              G (X 2)
e|-------0-------|-------2-------|-------3-------|
B|-----0---0---0-|-----3---3---3-|-----0---0---0-|
G|---0-------0---|---4-------4---|---0-------0---|
D|---------------|---------------|---------------|
A|---------------|-2-------------|---------------|
E|-0-------------|---------------|-3-------------|

  Em              A               D (X 2)
e|-------0-------|-------0-------|-------2-------|
B|-----0---0---0-|-----2---2---2-|-----3---3---3-|
G|---0-------0---|---2-------2---|---2-------2---|
D|---------------|---------------|-0-------------|
A|---------------|-0-------------|---------------|
E|-0-------------|---------------|---------------|

  Em              Bm              G (X 2)
e|-------0-------|-------2-------|-------3-------|
B|-----0---0---0-|-----3---3---3-|-----0---0---0-|
G|---0-------0---|---4-------4---|---0-------0---|
D|---------------|---------------|---------------|
A|---------------|-2-------------|---------------|
E|-0-------------|---------------|-3-------------|

  Em              A               G               D
e|-------0-------|-------0-------|-------3-------|-------2-------|
B|-----0---0---0-|-----2---2---2-|-----0---0---0-|-----3---3---3-|
G|---0-------0---|---2-------2---|---0-------0---|---2-------2---|
D|---------------|---------------|---------------|-0-------------|
A|---------------|-0-------------|---------------|---------------|
E|-0-------------|---------------|-3-------------|---------------|

Repeat verse + Chorus

then

Bridge:
                        Em (X 3)        A (2nd time X 4)
e|-4-2-4-------4-2-4-5-|-------0-------|-------0-------|
B|-------5-3-3---------|-----0---0---0-|-----2---2---2-|
G|---------------------|---0-------0---|---2-------2---| (X 2)
D|---------------------|---------------|---------------|
A|---------------------|---------------|-0-------------|
E|---------------------|-0-------------|---------------|

Repeat verse + chorus and end it with:
  D
e|-2--|
B|-3--|
G|-2--|
D|-0--|
A|----|
E|----|


| /  slide up
| \  slide down
| h  hammer-on
| p  pull-off
| ~  vibrato
| +  harmonic
| x  Mute note
============================================================================
Tap to rate this tab
# A B C D E F G H I J K L M N O P Q R S T U V W X Y Z