Song name
# A B C D E F G H I J K L M N O P Q R S T U V W X Y Z

Ash - Kung Fu tab

Kung Fu by Ash
Corrections: Retro_jetro@hotmail.co.uk
I'm pretty sure this is what to play. Sounds like it.

Intro
e-----------------------------------|
B-----------------------------------|
G--9-9-9-9-9-9-9-9-9-9-9-9-9-9-9-9--|
D-----------------------------------|
A--7-7-7-7-7-7-7-7-7-7-7-7-7-7-7-7--|
E-----------------------------------|

e-----------------------------------|
B-----------------------------------|
G--9-9-----9-9----------------------|
D--9-9-9-9-9-9-9-9-7-7-7-7-9-9-9-9--|
A--7-7-9-9-7-7-9-9-7-7-7-7-9-9-9-9--|
E------7-7-----7-7-5-5-5-5-7-7-7-7--|


Verse
e-----------------------------------|
B-----------------------------------|
G--9-9-----9-9----------------------| 
D--9-9-9-9-9-9-9-9-7-7-7-7-9-9-9-9--|
A--7-7-9-9-7-7-9-9-7-7-7-7-9-9-9-9--|
E------7-7-----7-7-5-5-5-5-7-7-7-7--|


Chorus
e-----------------------------------|
B-----------------------------------|
G--7-7---------------------9-9------|
D--7-7-7-7-9-9-7-7-5-5-5-5-9-9------|
A--5-5-7-7-9-9-7-7-5-5-5-5-7-7------|
E------5-5-7-7-5-5-3-3-3-3----------|

Bridge
e-----------------------------------|
B-----------------------------------|
G--9-9-9-9-9-9-9-9-9-9-9-9-9-9-9-9--|
D-----------------------------------|
A--7-7-7-7-7-7-7-7-7-7-7-7-7-7-7-7--|
E-----------------------------------|


e----------------------------------------------|
B----------------------------------------------|
G----------------------------------------------| 
D----------------------------------------------|
A----------------------------------------------|
E--1-2-3/(hold for a few seconds then slide)---|


I cant be bothered putting it in order. its simple enough.
Tap to rate this tab
# A B C D E F G H I J K L M N O P Q R S T U V W X Y Z