Song name
# A B C D E F G H I J K L M N O P Q R S T U V W X Y Z

Ash - Girl From Mars tab

----------------------------------------------------------------------------
			     Girl From Mars - Ash
----------------------------------------------------------------------------
Tabbed by: acoustic-fish
Tuning: EADGBe (standard)

Capo: second fret. tab relative to capo


play the intro/chorus and verse three clean, the rest with distortion.


intro/chorus
 e|-3---3---3-3-x-|2--2-x-2--2-x-2|-0---0---0-0-x-|-0--0-x-0--0-x-|
 B|-3---3---3-3-x-|3--3-x-3--3-x-3|-0---0---0-0-x-|-1--1-x-1--1-x-|
 G|-0---0---0-0-x-|3--2-x-2--2-x-2|-0---0---0-0-x-|-0--0-x-0--0-x-|
 D|-0---0---0-0-x-|0--0-x-0--0-x-0|-2---2---2-2-x-|-2--2-x-2--2-x-|
 A|-2---2---2-2-x-|-----x------x--|-3---3---3-3-x-|-0--0-x-0--0-x-|
 E|-3---3---3-3-x-|-----x------x--|-------------x-|------x------x-|
       do... ...the...knew...from...mars    i don't know...knew that

 e|-3---3---3-3-x-|2--2-x-2--2-x-2|-0---0---0-0-x-|-0--0-x-0--0-x-|
 B|-3---3---3-3-x-|3--3-x-3--3-x-3|-0---0---0-0-x-|-1--1-x-1--1-x-|
 G|-0---0---0-0-x-|3--2-x-2--2-x-2|-0---0---0-0-x-|-0--0-x-0--0-x-|
 D|-0---0---0-0-x-|0--0-x-0--0-x-0|-2---2---2-2-x-|-2--2-x-2--2-x-|
 A|-2---2---2-2-x-|-----x------x--|-3---3---3-3-x-|-0--0-x-0--0-x-|
 E|-3---3---3-3-x-|-----x------x--|-------------x-|------x------x-|
   oh...stay... ...cards..winterman cigars...    ...never  told...

 e|-0---0---0-0-x-|2--2-x-2--2-x-2|---------------|---------------|
 B|-1---1---1-1-x-|3--3-x-3--3-x-3|---------------|---------------|
 G|-0---0---0-0-x-|3--2-x-2--2-x-2|---------------|---------------|
 D|-2---2---2-2-x-|0--0-x-0--0-x-0|--5---5--5-5-5-|5--5-5-5--5-5-5|
 A|-3---3---3-3-x-|-----x------x--|--5---5--5-5-5-|5--5-5-5--5-5-5|
 E|-------------x-|-----x------x--|--3---3--3-3-3-|3--3-3-3--3-3-3|
...name...      ...love...girl... ...mars

 e|---------------|---------------|
 B|---------------|---------------|
 G|---------------|---------------|
 D|--5---5--5-5-5-|5--5-5-5--5-5-5|
 A|--5---5--5-5-5-|5--5-5-5--5-5-5|
 E|--3---3--3-3-3-|3--3-3-3--3-3-3|


verse one:
 e|-------------x-|-----x------x--|-------------x-|-----x------x--|
 B|-------------x-|-----x------x--|-------------x-|-----x------x--|
 G|-------------x-|7--7-x-5--5-x-5|-------------x-|5--5-x-7--7-x-7|
 D|-5---5---5-5-x-|7--7-x-5--5-x-5|-7---7---7-7-x-|5--5-x-7--7-x-7|
 A|-5---5---5-5-x-|5--5-x-3--3-x-3|-7---7---7-7-x-|3--3-x-5--5-x-5|
 E|-3---3---3-3-x-|-----x------x--|-5---5---5-5-x-|-----x------x--|
        sitting....dreamy daze......water's...  ...on.....summer's

 e|-------------x-|-----x------x--|-------------x-|-----x------x--|
 B|-------------x-|-----x------x--|-------------x-|-----x------x--|
 G|-------------x-|7--7-x-5--5-x-5|-------------x-|5--5-x-7--7-x-7|
 D|-5---5---5-5-x-|7--7-x-5--5-x-5|-7---7---7-7-x-|5--5-x-7--7-x-7|
 A|-5---5---5-5-x-|5--5-x-3--3-x-3|-7---7---7-7-x-|3--3-x-5--5-x-5|
 E|-3---3---3-3-x-|-----x------x--|-5---5---5-5-x-|-----x------x--|
   night......and..stars..sky... ...glowing...  ...from...cigarette

 e|-------------x-|-----x------x--|-------------x-|-----x------x--|
 B|-------------x-|-----x------x--|-------------x-|-----x------x--|
 G|-------------x-|7--7-x-5--5-x-5|-------------x-|5--5-x-7--7-x-7|
 D|-5---5---5-5-x-|7--7-x-5--5-x-5|-7---7---7-7-x-|5--5-x-7--7-x-7|
 A|-5---5---5-5-x-|5--5-x-3--3-x-3|-7---7---7-7-x-|3--3-x-5--5-x-5|
 E|-3---3---3-3-x-|-----x------x--|-5---5---5-5-x-|-----x------x--|
        the breeze blowing...    ...on..face     reminds..something

 e|-------------x-|-----x------x--|-------------x-|-----x------x--|
 B|-------------x-|-----x------x--|-------------x-|-----x------x--|
 G|-------------x-|7--7-x-5--5-x-5|-------------x-|5--5-x-7--7-x-7|
 D|-5---5---5-5-x-|7--7-x-5--5-x-5|-7---7---7-7-x-|5--5-x-7--7-x-7|
 A|-5---5---5-5-x-|5--5-x-3--3-x-3|-7---7---7-7-x-|3--3-x-5--5-x-5|
 E|-3---3---3-3-x-|-----x------x--|-5---5---5-5-x-|-----x------x--|
   else something..in.....memory....been misplaced suddenly..comes

 e|-------------x-|-----x------x--|
 B|-------------x-|-----x------x--|
 G|-------------x-|5--5-x-7--7-x-7|
 D|-7---7---7-7-x-|5--5-x-7--7-x-7|
 A|-7---7---7-7-x-|3--3-x-5--5-x-5|
 E|-5---5---5-5-x-|-----x------x--|
   back            and....look..the 


chorus:
 e|---------------|---------------|---------------|---------------|
 B|---------------|---------------|---------------|---------------|
 G|---------------|7--7-7-7--7-7-7|-5---5---5-5-5-|---------------|
 D|-5---5---5-5-5-|7--7-7-7--7-7-7|-5---5---5-5-5-|7--7-7-7--7-7-7|
 A|-5---5---5-5-5-|5--5-5-5--5-5-5|-3---3---3-3-3-|7--7-7-7--7-7-7|
 E|-3---3---3-3-3-|---------------|---------------|5--5-5-5--5-5-5|
  stars i...    ...time......girl...mars    i......know...knew that 

 e|---------------|---------------|---------------|---------------|
 B|---------------|---------------|---------------|---------------|
 G|---------------|7--7-7-7--7-7-7|-5---5---5-5-5-|---------------|
 D|-5---5---5-5-5-|7--7-7-7--7-7-7|-5---5---5-5-5-|7--7-7-7--7-7-7|
 A|-5---5---5-5-5-|5--5-5-5--5-5-5|-3---3---3-3-3-|7--7-7-7--7-7-7|
 E|-3---3---3-3-3-|---------------|---------------|5--5-5-5--5-5-5|
    oh......late...cards..winterman cigars...   ...never  told me...

 e|---------------|---------------|---------------|---------------|
 B|---------------|---------------|---------------|---------------|
 G|-5---5---5-5-5-|---------------|---------------|---------------|
 D|-5---5---5-5-5-|7--7-7-7--7-7-7|--5---5--5-5-5-|5--5-5-5--5-5-5|
 A|-3---3---3-3-3-|7--7-7-7--7-7-7|--5---5--5-5-5-|5--5-5-5--5-5-5|
 E|---------------|5--5-5-5--5-5-5|--3---3--3-3-3-|3--3-3-3--3-3-3|
...name...      ...love...girl... ...mars

 e|---------------|---------------|
 B|---------------|---------------|
 G|---------------|---------------|
 D|--5---5--5-5-5-|5--5-5-5--5-5-5|
 A|--5---5--5-5-5-|5--5-5-5--5-5-5|
 E|--3---3--3-3-3-|3--3-3-3--3-3-3|


verse two:
 e|-------------x-|-----x------x--|-------------x-|-----x------x--|
 B|-------------x-|-----x------x--|-------------x-|-----x------x--|
 G|-------------x-|7--7-x-5--5-x-5|-------------x-|5--5-x-7--7-x-7|
 D|-5---5---5-5-x-|7--7-x-5--5-x-5|-7---7---7-7-x-|5--5-x-7--7-x-7|
 A|-5---5---5-5-x-|5--5-x-3--3-x-3|-7---7---7-7-x-|3--3-x-5--5-x-5|
 E|-3---3---3-3-x-|-----x------x--|-5---5---5-5-x-|-----x------x--|
       surging.....darkness....the moonlight...electricity in the

 e|-------------x-|-----x------x--|-------------x-|-----x------x--|
 B|-------------x-|-----x------x--|-------------x-|-----x------x--|
 G|-------------x-|7--7-x-5--5-x-5|-------------x-|5--5-x-7--7-x-7|
 D|-5---5---5-5-x-|7--7-x-5--5-x-5|-7---7---7-7-x-|5--5-x-7--7-x-7|
 A|-5---5---5-5-x-|5--5-x-3--3-x-3|-7---7---7-7-x-|3--3-x-5--5-x-5|
 E|-3---3---3-3-x-|-----x------x--|-5---5---5-5-x-|-----x------x--|
   air  twisting...through.....on...terrace        now....summer's

 e|-------------x-|-----x------x--|-------------x-|-----x------x--|
 B|-------------x-|-----x------x--|-------------x-|-----x------x--|
 G|-------------x-|7--7-x-5--5-x-5|-------------x-|5--5-x-7--7-x-7|
 D|-5---5---5-5-x-|7--7-x-5--5-x-5|-7---7---7-7-x-|5--5-x-7--7-x-7|
 A|-5---5---5-5-x-|5--5-x-3--3-x-3|-7---7---7-7-x-|3--3-x-5--5-x-5|
 E|-3---3---3-3-x-|-----x------x--|-5---5---5-5-x-|-----x------x--|
   here i...    ...you....almost in love with......see it in your

 e|-------------x-|-----x------x--|-------------x-|-----x------x--|
 B|-------------x-|-----x------x--|-------------x-|-----x------x--|
 G|-------------x-|7--7-x-5--5-x-5|-------------x-|5--5-x-7--7-x-7|
 D|-5---5---5-5-x-|7--7-x-5--5-x-5|-7---7---7-7-x-|5--5-x-7--7-x-7|
 A|-5---5---5-5-x-|5--5-x-3--3-x-3|-7---7---7-7-x-|3--3-x-5--5-x-5|
 E|-3---3---3-3-x-|-----x------x--|-5---5---5-5-x-|-----x------x--|
   eyes strange....shimmering... ...sea tonight....almost blows my

 e|-------------x-|-----x------x--|
 B|-------------x-|-----x------x--|
 G|-------------x-|5--5-x-7--7-x-7|
 D|-7---7---7-7-x-|5--5-x-7--7-x-7|
 A|-7---7---7-7-x-|3--3-x-5--5-x-5|
 E|-5---5---5-5-x-|-----x------x--|
   mind            and....look...the


chorus:
 e|---------------|---------------|---------------|---------------|
 B|---------------|---------------|---------------|---------------|
 G|---------------|7--7-7-7--7-7-7|-5---5---5-5-5-|---------------|
 D|-5---5---5-5-5-|7--7-7-7--7-7-7|-5---5---5-5-5-|7--7-7-7--7-7-7|
 A|-5---5---5-5-5-|5--5-5-5--5-5-5|-3---3---3-3-3-|7--7-7-7--7-7-7|
 E|-3---3---3-3-3-|---------------|---------------|5--5-5-5--5-5-5|
 stars i...   ...time......girl...mars    i......know...knew that 

 e|---------------|---------------|---------------|---------------|
 B|---------------|---------------|---------------|---------------|
 G|---------------|7--7-7-7--7-7-7|-5---5---5-5-5-|---------------|
 D|-5---5---5-5-5-|7--7-7-7--7-7-7|-5---5---5-5-5-|7--7-7-7--7-7-7|
 A|-5---5---5-5-5-|5--5-5-5--5-5-5|-3---3---3-3-3-|7--7-7-7--7-7-7|
 E|-3---3---3-3-3-|---------------|---------------|5--5-5-5--5-5-5|
    oh......late...cards..winterman cigars...   ...never  told me...

 e|---------------|---------------|---------------|---------------|
 B|---------------|---------------|---------------|---------------|
 G|-5---5---5-5-5-|---------------|---------------|---------------|
 D|-5---5---5-5-5-|7--7-7-7--7-7-7|--5---5--5-5-5-|5--5-5-5--5-5-5|
 A|-3---3---3-3-3-|7--7-7-7--7-7-7|--5---5--5-5-5-|5--5-5-5--5-5-5|
 E|---------------|5--5-5-5--5-5-5|--3---3--3-3-3-|3--3-3-3--3-3-3|
...name...      ...love...girl... ...mars

 e|---------------|---------------|
 B|---------------|---------------|
 G|---------------|---------------|
 D|--5---5--5-5-5-|5--5-5-5--5-5-5|
 A|--5---5--5-5-5-|5--5-5-5--5-5-5|
 E|--3---3--3-3-3-|3--3-3-3--3-3-3|


solo:
 e|-------0---0---|2------3-------|-0-------------|-8--7--8--7----|
 B|-3---3---------|---------------|---------------|------------8--|
 G|---------------|---------------|---------------|---------------|
 D|---------------|---------------|---------------|---------------|
 A|---------------|---------------|---------------|---------------|
 E|---------------|---------------|---------------|---------------|

 e|-------0---0---|2------3-------|-0-------------|-7-10--7--8----|
 B|-3---3---------|---------------|---------------|-----------10--|
 G|---------------|---------------|---------------|---------------|
 D|---------------|---------------|---------------|---------------|
 A|---------------|---------------|---------------|---------------|
 E|---------------|---------------|---------------|---------------|

 e|-10p8p7-10p8p7-|-10p8p7-10p8p7-|--10p8p7-------|---------------|
 B|---------------|---------------|--------10p8p7-|---------------|
 G|---------------|---------------|---------------|-9p7p6---------|
 D|---------------|---------------|---------------|------9p7p5----|
 A|---------------|---------------|---------------|---------------|
 E|---------------|---------------|---------------|---------------|

 e|7p5p37p5p37p5p3|0-0----3--5----|-7h8-7---5-----|-------3--5----|
 B|---------------|---------------|------------8--|5--------------|
 G|---------------|---------------|---------------|---------------|
 D|---------------|---------------|---------------|---------------|
 A|---------------|---------------|---------------|---------------|
 E|---------------|---------------|---------------|---------------|

 e|-7-------------|8--7---5--7----|
 B|---------------|--------------8|
 G|---------------|---------------|
 D|---------------|---------------|
 A|---------------|---------------|
 E|---------------|---------------|


verse three:
 e|-3---3---3-3-x-|2--2-x-0--0-x-0|-0---0---0-0-x-|0--0-x-2--2-x-2|
 B|-3---3---3-3-x-|3--3-x-0--0-x-0|-1---1---1-1-x-|0--0-x-3--3-x-3|
 G|-0---0---0-0-x-|2--2-x-0--0-x-0|-0---0---0-0-x-|0--0-x-2--2-x-2|
 D|-0---0---0-0-x-|0--0-x-2--2-x-2|-2---2---2-2-x-|2--2-x-0--0-x-0|
 A|-2---2---2-2-x-|-----x-3--3-x-3|-0---0---0-0-x-|3--3-x------x--|
 E|-3---3---3-3-x-|-----x------x--|-------------x-|-----x------x--|
        today    asleep...chair.....window...   ...felt...you'd

 e|-3---3---3-3-x-|2--2-x-0--0-x-0|-0---0---0-0-x-|0--0-x-2--2-x-2|
 B|-3---3---3-3-x-|3--3-x-0--0-x-0|-1---1---1-1-x-|0--0-x-3--3-x-3|
 G|-0---0---0-0-x-|2--2-x-0--0-x-0|-0---0---0-0-x-|0--0-x-2--2-x-2|
 D|-0---0---0-0-x-|0--0-x-2--2-x-2|-2---2---2-2-x-|2--2-x-0--0-x-0|
 A|-2---2---2-2-x-|-----x-3--3-x-3|-0---0---0-0-x-|3--3-x------x--|
 E|-3---3---3-3-x-|-----x------x--|-------------x-|-----x------x--|
  returned....that you....standing  over me...  ...woke...no-one

 e|-0-------------|------0-----2---|---------------|
 B|-1-------------|------0-----3---|---------------|
 G|-0-------------|------0-----2---|---------------|
 D|-2-------------|------2-----0---|---------------|
 A|-3-------------|------3---------|---------------|
 E|---------------|----------------|---------------|
    there       i still love...girl from


outro/chorus:
 e|---------------|---------------|---------------|---------------|
 B|---------------|---------------|---------------|---------------|
 G|---------------|7--7-7-7--7-7-7|-5---5---5-5-5-|---------------|
 D|-5---5---5-5-5-|7--7-7-7--7-7-7|-5---5---5-5-5-|7--7-7-7--7-7-7|
 A|-5---5---5-5-5-|5--5-5-5--5-5-5|-3---3---3-3-3-|7--7-7-7--7-7-7|
 E|-3---3---3-3-3-|---------------|---------------|5--5-5-5--5-5-5|
   mars do...   ...time......girl...mars    i......know...knew that 

 e|---------------|---------------|---------------|---------------|
 B|---------------|---------------|---------------|---------------|
 G|---------------|7--7-7-7--7-7-7|-5---5---5-5-5-|---------------|
 D|-5---5---5-5-5-|7--7-7-7--7-7-7|-5---5---5-5-5-|7--7-7-7--7-7-7|
 A|-5---5---5-5-5-|5--5-5-5--5-5-5|-3---3---3-3-3-|7--7-7-7--7-7-7|
 E|-3---3---3-3-3-|---------------|---------------|5--5-5-5--5-5-5|
    oh......late...cards..winterman cigars...   ...never  told me her

 e|---------------|---------------|---------------|---------------|
 B|---------------|---------------|---------------|---------------|
 G|---------------|7--7-7-7--7-7-7|-5---5---5-5-5-|---------------|
 D|-5---5---5-5-5-|7--7-7-7--7-7-7|-5---5---5-5-5-|7--7-7-7--7-7-7|
 A|-5---5---5-5-5-|5--5-5-5--5-5-5|-3---3---3-3-3-|7--7-7-7--7-7-7|
 E|-3---3---3-3-3-|---------------|---------------|5--5-5-5--5-5-5|
   name do...   ...time......girl...mars    i......know...knew that 

 e|---------------|---------------|---------------|---------------|
 B|---------------|---------------|---------------|---------------|
 G|---------------|7--7-7-7--7-7-7|-5---5---5-5-5-|---------------|
 D|-5---5---5-5-5-|7--7-7-7--7-7-7|-5---5---5-5-5-|7--7-7-7--7-7-7|
 A|-5---5---5-5-5-|5--5-5-5--5-5-5|-3---3---3-3-3-|7--7-7-7--7-7-7|
 E|-3---3---3-3-3-|---------------|---------------|5--5-5-5--5-5-5|
    oh......late...cards..winterman cigars     and i still dream of

 e|---------------|---------------|---------------|
 B|---------------|---------------|---------------|
 G|7--7-7-7--7-7-7|-5---5---5-5-5-|---------------|
 D|7--7-7-7--7-7-7|-5---5---5-5-5-|7--------------|
 A|5--5-5-5--5-5-5|-3---3---3-3-3-|7--------------|
 E|---------------|---------------|5--------------|
   you         i....love....girl...mars


thanks to the ver.2 chords for the softer bits, hope you dont mind, thewookie...

enjoy!

============================================================================
full lyrics:
____________
do you remember the time i knew a girl from mars
i don't know if you knew that
oh we'd stay up late playing cards
henri winterman cigars
and she never told me her name
i still love you the girl from mars

sitting in a dreamy daze by the water's edge
on a cool summer's night
fireflies and the stars in the sky
gentle glowing light
from your cigarette
the breeze blowing softly on my face
reminds me of something else
something that in my memory has been misplaced
suddenly it all comes back
and as i look to the stars

i you remember the time i knew a girl from mars
i don't know if you knew that
oh we'd stay up late playing cards
henri winterman cigars
and she never told me her name
i still love you the girl from mars

surging through the darkness over the moonlight strand
electricity in the air
twisting all through the night on the terrace
now that summer's here
i know you are almost in love with me
i can see it in your eyes
strange light shimmering over the sea tonight
and it almost blows my mind
and as i look to the stars

i you remember the time i knew a girl from mars
i don't know if you knew that
oh we'd stay up late playing cards
henri winterman cigars
and she never told me her name
i still love you the girl from mars

today asleep in the chair by the window
it felt as if you'd returned
i thought that you were standing over me
when i woke there was no-one there
i still love you, girl from mars

do you remember the time i knew a girl from mars
i don't know if you knew that
oh we'd stay up late playing cards
henri winterman cigars
but she never told me her name

do you remember the time i knew a girl from mars
i don't know if you knew that
oh we'd stay up late playing cards
henri winterman cigars
and i still dream of you
i still love you, the girl from mars
============================================================================
| /  slide up
| \  slide down
| h  hammer-on
| p  pull-off
| ~  vibrato
| +  harmonic
| x  Mute note
============================================================================
Tap to rate this tab
# A B C D E F G H I J K L M N O P Q R S T U V W X Y Z