Song name
# A B C D E F G H I J K L M N O P Q R S T U V W X Y Z

Ash - There Is Hope Again tab

Ash - "There Is Hope Again" (Solo)

I transcribed this by ear and I'm fairly certain it's 100% correct.

----------------8---------------------10---------------------11--------|
-----------9--------------------11---------------------11--------------|
-----10-------------------10---------------------12--------------------|
--10----10---10---10---12----12----12----12---13----13----13----13-----|
-----------------------------------------------------------------------|
-----------------------------------------------------------------------|

-----------------13---------------------13---------------------13------|
-----------13---------------------13---------------------15------------|
-----13---------------------13---------------------15------------------|
--13----13----13----13---15----15----15----15---15----15----15----15---|
-----------------------------------------------------------------------|
-----------------------------------------------------------------------|

-----------------15-------------15p16-13----15p13--------16p13----------|
-----------16----------------------------16-------16-13--------13p11-13-|
-----15---------------------17------------------------------------------|
--17----17----17----17---18---------------------------------------------|
------------------------------------------------------------------------|
------------------------------------------------------------------------|

--16-16p13----------16-16p13----------16-16p13----------16-18p15----------|
-----------13p11-13----------15p13-15----------15p13-15----------16p15-16-|
--------------------------------------------------------------------------|
--------------------------------------------------------------------------|
--------------------------------------------------------------------------|
--------------------------------------------------------------------------|

--18-18p15----------18-20p16----------20-20p16----------20-20p16-----------|
-----------16p15-16----------16p15-16----------16p15-16----------18p16-18--|
---------------------------------------------------------------------------|
---------------------------------------------------------------------------|
---------------------------------------------------------------------------|
---------------------------------------------------------------------------|

--20-20p16----------20-22p18----------22-22p18----------22--|
-----------18p16-18----------18p16-18----------18p16-18-----|
------------------------------------------------------------|
------------------------------------------------------------|
------------------------------------------------------------|
------------------------------------------------------------|

--20-16-16-20-16-16-20-16-16-20-16-16-20-16-16-22-18-18-22-18-18--22b23~--|
--16-16-16-16-16-16-16-16-16-16-16-16-16-16-16-18-18-18-18-18-18----------|
--------------------------------------------------------------------------|
--------------------------------------------------------------------------|
--------------------------------------------------------------------------|
--------------------------------------------------------------------------|
Tap to rate this tab
 
# A B C D E F G H I J K L M N O P Q R S T U V W X Y Z