Guitaretab - guitar tabs
Song name
# A B C D E F G H I J K L M N O P Q R S T U V W X Y Z
Home / A / Ash / Envy tab

Ash - Envy tab

Envy


intro
e|--5--2---------------------5--2----------------------|
B|--2--2---2--4--------------2--2---2--4---------------|
G|---------2--4---------------------2--4---------------| 
D|-----------------2-----------------------------2----|   
A|--------------------4-2-------------------2h4--------| 
E|-----------------------------------------------------|   

e|--5--2---------------------5--2--------------------|
B|--2--2---2--4--------------2--2---2---4------------|
G|---------2--4---------------------2---4b---2-------| 
D|-----------------2----------------------------4---|   
A|--------------------4-2----------------------------| 
E|---------------------------------------------------|   

e|--5--2-----------------------5--2---5-5-5-5-2-2------|
B|--2--2---2--4----------------2--2---2-2-2-2--2-2------|
G|---------2--4-----------------------------------------| 
D|----------------2-4--2-4-----------------------------|   
A|------------------------------------------------------| 
E|------------------------------------------------------|   
[ Tab from: http://www.guitaretab.com/a/ash/35822.html ]
solo
e|----------------------------------------------------------|
B|------------------------------------10--10--10--10---9----|
G|-11v---------------11v--------------13b-13b-13b-13-12fb--| 
D|-------11--9-8----------11--9-8--------------------------|   
A|----------------------------------------------------------| 
E|----------------------------------------------------------|   

                                                                         order :

-intro

-verse   :   E  /  Amaj7  / C  /B    4x

-chorus :   E  /  Amaj7  / C  /B    2x

-verse   :   E  /  Amaj7  / C  /B    2x
            Am (ring)

-bridge :   F  / A#maj7 / C#   /   C
            Am7  / D

-verse   :   E  /  Amaj7  / C  /B    2x


-bridge  :  F#  / Bmaj7 / D   /   C#     2x
            Bm (ring)

-chorus  :  F#  / Bmaj7 / D   /   C#     2x

-bridge  :  G  / Cmaj7 / D#   /   D          
            Bm7  / E

-solo over  F#  / Bmaj7 / D   /   C#

-verse     :  E  /  Amaj7  / C  /B    2x

-chorus  : F#  / Bmaj7 / D   /   C#     2x


-outro   : F#  / Bmaj7 / D   /   C#     2x
           F# 





Related for Envy tab