Song name
# A B C D E F G H I J K L M N O P Q R S T U V W X Y Z

Ash - Im Gonna Fall tab

I'm Gonna Fall
By: Ash
Tabbed by: Peter Nygaard
	
Intro


e|---0-2---0-2---0--32---32---32----0-2---0-2---0--32---32---32--|         
b|--3-----3-----3------0-----0-----3-----3-----3------0----0-----|
g|---------------------------------------------------------------|
d|---------------------------------------------------------------|
a|---------------------------------------------------------------|
e|---------------------------------------------------------------|


e|---0-2---0-2---0--32---32---32----0-2---0-2---0--32---32---32--|         
b|--3-----3-----3------0-----0-----3-----3-----3------0----0-----|
g|---------------------------------------------------------------|
d|---------------------------------------------------------------|
a|---------------------------------------------------------------|
e|---------------------------------------------------------------|


e|---0-2--0-2--0-2--0-2--0-2---|
b|--3----3----3----3----3------|
g|-----------------------------|
d|-----------------------------|
a|-----------------------------|


e|-----9---7--5-----3----|
b|--45---34-23-20-01-----|
g|-----------------------|
d|-----------------------|
a|-----------------------|


(Repeated a lot during the song)
Tap to rate this tab
 
# A B C D E F G H I J K L M N O P Q R S T U V W X Y Z