Song name
# A B C D E F G H I J K L M N O P Q R S T U V W X Y Z

Ash - Renegade Cavalcade tab

----------------------------------------------------------------------------
			     RENEGADE CAVALCADE - ASH
----------------------------------------------------------------------------Tabbed by:drummerlad


Tuning:Standard

Yeh-I saw the other tabs which all said use a capo at 7th fret....why? I dont think you 
need one, this is easier I feel. And you can just use power or barre chords for the 
and chorus.

e|-----------------|----------------|-----------------|----------------||
B|-----3---3---3---|----------------|-----3---3---3---|----------------||
G|-------4---4---4-|----9-----7---7-|-------4---4---4-|----9-----7---7-||
D|-----------------|------7---------|-----------------|------7---------||
A|-2---------------|7-------5---4---|-2---------------|7-------5---4---||
E|-----------------|----------------|-----------------|----------------||

short and sweet.
Tap to rate this tab
# A B C D E F G H I J K L M N O P Q R S T U V W X Y Z