Song name
# A B C D E F G H I J K L M N O P Q R S T U V W X Y Z

Ash - World Domination tab

-------------------------------------------------------------------------------
			     WORLD DOMINATION - Ash
-------------------------------------------------------------------------------
Tabbed by: Sam Allen
Email: allenscool@hotmail.co.uk
Tuning: Standard
Date: 29th November 2005
Listen for rhythm.Use drive.Repeat as wished.

INTRO & VERSE
   C  C  C  F  F  C  C  C  C  C  D F G
e|-8--8--8--8--8--8--8--8--8------------|
B|-8--8--8--10-10-8--8--8--8------------|
G|-9--9--9--10-10-9--9--9--9------------|
D|-10-10-10-10-10-10-10-10-10-----------|
A|-10-10-10-8--8--10-10-10-10------8h10-|
E|-8--8--8--------8--8--8--8--8h10------|
                                                 PLAYED A FEW TIMES
   A  A  A  D  D  A  A  A  A  A B D A
e|-5--5--5--5--5--5--5--5--5------------|
B|-5--5--5--7--7--5--5--5--5------------|
G|-6--6--6--7--7--6--6--6--6------------|
D|-7--7--7--7--7--7--7--7--7------------|
A|-7--7--7--5--5--7--7--7--7------5h7---|
E|-5--5--5--------5--5--5--5--5h7-------|

CHORUS
   G G G G G G G G G A A A A G G G G G G G G G A#A#A#A# F     A    B     D
e|-3-3-3-3-3-3-3-3-3-5-5-5-5-3-3-3-3-3-3-3-3-3-6-6-6-6------------------------|
B|-3-3-3-3-3-3-3-3-3-5-5-5-5-3-3-3-3-3-3-3-3-3-6-6-6-6------------------------|
G|-3-3-3-3-3-3-3-3-3-5-5-5-5-3-3-3-3-3-3-3-3-3-6-6-6-6--10^---14^--16^---19^--|
D|-5-5-5-5-5-5-5-5-5-7-7-7-7-5-5-5-5-5-5-5-5-5-8-8-8-8------------------------|
A|-5-5-5-5-5-5-5-5-5-7-7-7-7-5-5-5-5-5-5-5-5-5-8-8-8-8------------------------|
E|-3-3-3-3-3-3-3-3-3-5-5-5-5-3-3-3-3-3-3-3-3-3-6-6-6-6------------------------|

haven't quite figured out the solo yet but im working on it.
PLEASE RATE THIS TAB!!!

| ^  bend
| /  slide up
| \  slide down
| h  hammer-on
| p  pull off
| x  Mute note
| ~  vibrato
| +  harmonic
Tap to rate this tab
# A B C D E F G H I J K L M N O P Q R S T U V W X Y Z