Song name
# A B C D E F G H I J K L M N O P Q R S T U V W X Y Z

Ash - Girl From Mars tab

#

#----------------------------------PLEASE NOTE---------------------------------#
#This file is the author's own work and represents their interpretation of the #
#song. You may only use this file for private study, scholarship, or research. #
#------------------------------------------------------------------------------#

Date: Mon, 02 Dec 1996 22:35:37 -0800
From: John Bucknall 
Subject: Girl from Mars by Ash

Girl From Mars
                                      Ash
                                                            Rhythm Guitar Part

Chris Bucknall
lj99@dial.pipex.com

With Distortion, except where indicated

(Solo Acoustic Opening)                                                         
-||-----------------------------------------------------------------------------
-||-----------------------------------------------------------------------------
-||-----------------------------------------------------------------------------
-||-----------------------------------------------------------------------------
-||-----------------------------------------------------------------------------
-||-----------------------------------------------------------------------------
                                                                                

     BRIDGE (Play this after every Chorus)                                      
||----5--------5--------5--5-----5--5--5--5--5--5---||--------------------------
||----5--------5--------5--5-----5--5--5--5--5--5---||--------------------------
||*---6--------6--------6--6-----6--6--6--6--6--6--*||--------------------------
||*---7--------7--------7--7-----7--7--7--7--7--7--*||--------------------------
||----7--------7--------7--7-----7--7--7--7--7--7---||--------------------------
||----5--------5--------5--5-----5--5--5--5--5--5---||--------------------------
                                                                                

     Verse 1                                                                    
||----------------------------------------------|-------------------------------
||----------------------------------------------|-------------------------------
||*------------------7--9-----9-----7-----7-----|-------------------------------
||*---7-----7--------7--9-----9-----7-----7-----|-------------------------------
||----7-----7--------5--7-----7-----5-----5-----|-------------------------------
||----5-----5-----x-----------------------------|-------------------------------
                                                                                

                                                                                
----------------------------------------------||--------------------------------
----------------------------------------------||--------------------------------
---------------------7-----7-----9-----9-----*||--------------------------------
9-----9--------9-----7-----7-----9-----9-----*||--------------------------------
9-----9--------9-----5-----5-----7-----7------||--------------------------------
7-----7-----x--7------------------------------||--------------------------------
                                                                                

                                                                                
---------------------------------------------||---------------------------------
---------------------------------------------||---------------------------------
------------------------7-----7-----9-----9--||---------------------------------
9-----9--------9--------7-----7-----9-----9--||---------------------------------
9-----9--------9--------5-----5-----7-----7--||---------------------------------
7-----7-----x--7-----------------------------||---------------------------------
                                                                                

Chorus 1                                                                        
-5-----5-----5--5-----------------------|---------------------------------------
-5-----5-----5--5-----9-----9-----9--9--|---------------------------------------
-6-----6-----6--6-----9-----9-----9--9--|---------------------------------------
-7-----7-----7--7-----9-----9-----9--9--|---------------------------------------
-7-----7-----7--7-----7-----7-----7--7--|---------------------------------------
-5-----5-----5--5-----------------------|---------------------------------------
                                                                                

                                                                                
------------------7-----7-----7--7--|-------------------------------------------
7-----7-----7--7--7-----7-----7--7--|-------------------------------------------
7-----7-----7--7--7-----7-----7--7--|-------------------------------------------
7-----7-----7--7--9-----9-----9--9--|-------------------------------------------
5-----5-----5--5--9-----9-----9--9--|-------------------------------------------
------------------7-----7-----7--7--|-------------------------------------------
                                                                                

                                                                                
5-----5-----5--5-----------------------|----------------------------------------
5-----5-----5--5-----9-----9-----9--9--|----------------------------------------
6-----6-----6--6-----9-----9-----9--9--|----------------------------------------
7-----7-----7--7-----9-----9-----9--9--|----------------------------------------
7-----7-----7--7-----7-----7-----7--7--|----------------------------------------
5-----5-----5--5-----------------------|----------------------------------------
                                                                                

                                                                                
------------------7-----7-----7--7--|-------------------------------------------
7-----7-----7--7--7-----7-----7--7--|-------------------------------------------
7-----7-----7--7--7-----7-----7--7--|-------------------------------------------
7-----7-----7--7--9-----9-----9--9--|-------------------------------------------
5-----5-----5--5--9-----9-----9--9--|-------------------------------------------
------------------7-----7-----7--7--|-------------------------------------------
                                                                                

                                           BRIDGE                               
---------------------------------------||---------------------------------------
7-----7-----7--7-----9-----9-----9--9--||---------------------------------------
7-----7-----7--7-----9-----9-----9--9--||---------------------------------------
7-----7-----7--7-----9-----9-----9--9--||---------------------------------------
5-----5-----5--5-----7-----7-----7--7--||---------------------------------------
---------------------------------------||---------------------------------------
                                                                                

     Verse 2                                                                    
||----------------------------------------------|-------------------------------
||----------------------------------------------|-------------------------------
||*------------------7--9-----9-----7-----7-----|-------------------------------
||*---7-----7--------7--9-----9-----7-----7-----|-------------------------------
||----7-----7--------5--7-----7-----5-----5-----|-------------------------------
||----5-----5-----x-----------------------------|-------------------------------
                                                                                

                                                                                
----------------------------------------------||--------------------------------
----------------------------------------------||--------------------------------
---------------------7-----7-----9-----9-----*||--------------------------------
9-----9--------9-----7-----7-----9-----9-----*||--------------------------------
9-----9--------9-----5-----5-----7-----7------||--------------------------------
7-----7-----x--7------------------------------||--------------------------------
                                                                                

                                                                                
---------------------------------------------||---------------------------------
---------------------------------------------||---------------------------------
------------------------7-----7-----9-----9--||---------------------------------
9-----9--------9--------7-----7-----9-----9--||---------------------------------
9-----9--------9--------5-----5-----7-----7--||---------------------------------
7-----7-----x--7-----------------------------||---------------------------------
                                                                                

Chorus 2                                                                        
-5-----5-----5--5-----------------------|---------------------------------------
-5-----5-----5--5-----9-----9-----9--9--|---------------------------------------
-6-----6-----6--6-----9-----9-----9--9--|---------------------------------------
-7-----7-----7--7-----9-----9-----9--9--|---------------------------------------
-7-----7-----7--7-----7-----7-----7--7--|---------------------------------------
-5-----5-----5--5-----------------------|---------------------------------------
                                                                                

                                                                                
------------------7-----7-----7--7--|-------------------------------------------
7-----7-----7--7--7-----7-----7--7--|-------------------------------------------
7-----7-----7--7--7-----7-----7--7--|-------------------------------------------
7-----7-----7--7--9-----9-----9--9--|-------------------------------------------
5-----5-----5--5--9-----9-----9--9--|-------------------------------------------
------------------7-----7-----7--7--|-------------------------------------------
                                                                                

                                                                                
5-----5-----5--5-----------------------|----------------------------------------
5-----5-----5--5-----9-----9-----9--9--|----------------------------------------
6-----6-----6--6-----9-----9-----9--9--|----------------------------------------
7-----7-----7--7-----9-----9-----9--9--|----------------------------------------
7-----7-----7--7-----7-----7-----7--7--|----------------------------------------
5-----5-----5--5-----------------------|----------------------------------------
                                                                                

                                                                                
------------------7-----7-----7--7--|-------------------------------------------
7-----7-----7--7--7-----7-----7--7--|--7-----7-----7--7-----9-----9-----9--9----
7-----7-----7--7--7-----7-----7--7--|--7-----7-----7--7-----9-----9-----9--9----
7-----7-----7--7--9-----9-----9--9--|--7-----7-----7--7-----9-----9-----9--9----
5-----5-----5--5--9-----9-----9--9--|--5-----5-----5--5-----7-----7-----7--7----
------------------7-----7-----7--7--|-------------------------------------------
                                                                                

     SOLO:                                                                      
||----5-----5-----5--------------------------|----------------------------------
||----5-----5-----5--7-----9-----9-----9--9--|----------------------------------
||*---6-----6-----6--7-----9-----9-----9--9--|----------------------------------
||*---7-----7-----7--7-----9-----9-----9--9--|----------------------------------
||----7-----7-----7--5-----7-----7-----7--7--|----------------------------------
||----5-----5-----5--------------------------|----------------------------------
                                                                                

                                               (solo acoustic bit)              
---------------------7-----7-----7--7---||--5------------------------||---------
7-----7-----7--7-----7-----7-----7--7---||--5------------------------||---------
7-----7-----7--7-----7-----7-----7--7--*||--6------------------------||---------
7-----7-----7--7-----9-----9-----9--9--*||--7------------------------||---------
5-----5-----5--5-----9-----9-----9--9---||--7------------------------||---------
---------------------7-----7-----7--7---||--5------------------------||---------
                                                                                

play BRIDGE         Final Extended Chorus                                       
----------------||---5-----5-----5--5-----------------------|-------------------
----------------||---5-----5-----5--5-----9-----9-----9--9--|-------------------
----------------||---6-----6-----6--6-----9-----9-----9--9--|-------------------
----------------||---7-----7-----7--7-----9-----9-----9--9--|-------------------
----------------||---7-----7-----7--7-----7-----7-----7--7--|-------------------
----------------||---5-----5-----5--5-----------------------|-------------------
                                                                                

                                                                                
------------------7-----7-----7--7--|-------------------------------------------
7-----7-----7--7--7-----7-----7--7--|-------------------------------------------
7-----7-----7--7--7-----7-----7--7--|-------------------------------------------
7-----7-----7--7--9-----9-----9--9--|-------------------------------------------
5-----5-----5--5--9-----9-----9--9--|-------------------------------------------
------------------7-----7-----7--7--|-------------------------------------------
                                                                                

                                                                                
5-----5-----5--5-----------------------|----------------------------------------
5-----5-----5--5-----9-----9-----9--9--|----------------------------------------
6-----6-----6--6-----9-----9-----9--9--|----------------------------------------
7-----7-----7--7-----9-----9-----9--9--|----------------------------------------
7-----7-----7--7-----7-----7-----7--7--|----------------------------------------
5-----5-----5--5-----------------------|----------------------------------------
                                                                                

                                                                                
------------------7-----7-----7--7--|-------------------------------------------
7-----7-----7--7--7-----7-----7--7--|-------------------------------------------
7-----7-----7--7--7-----7-----7--7--|-------------------------------------------
7-----7-----7--7--9-----9-----9--9--|-------------------------------------------
5-----5-----5--5--9-----9-----9--9--|-------------------------------------------
------------------7-----7-----7--7--|-------------------------------------------
                                                                                

                                                                                
5-----5-----5--5-----------------------|----------------------------------------
5-----5-----5--5-----9-----9-----9--9--|----------------------------------------
6-----6-----6--6-----9-----9-----9--9--|----------------------------------------
7-----7-----7--7-----9-----9-----9--9--|----------------------------------------
7-----7-----7--7-----7-----7-----7--7--|----------------------------------------
5-----5-----5--5-----------------------|----------------------------------------
                                                                                

                                                                                
------------------7-----7-----7--7--|-------------------------------------------
7-----7-----7--7--7-----7-----7--7--|-------------------------------------------
7-----7-----7--7--7-----7-----7--7--|-------------------------------------------
7-----7-----7--7--9-----9-----9--9--|-------------------------------------------
5-----5-----5--5--9-----9-----9--9--|-------------------------------------------
------------------7-----7-----7--7--|-------------------------------------------
                                                                                

                                                                                
5-----5-----5--5-----------------------|----------------------------------------
5-----5-----5--5-----9-----9-----9--9--|----------------------------------------
6-----6-----6--6-----9-----9-----9--9--|----------------------------------------
7-----7-----7--7-----9-----9-----9--9--|----------------------------------------
7-----7-----7--7-----7-----7-----7--7--|----------------------------------------
5-----5-----5--5-----------------------|----------------------------------------
                                                                                

                                                                                
------------------7-----7-----7--7--|-------------------------------------------
7-----7-----7--7--7-----7-----7--7--|-------------------------------------------
7-----7-----7--7--7-----7-----7--7--|-------------------------------------------
7-----7-----7--7--9-----9-----9--9--|-------------------------------------------
5-----5-----5--5--9-----9-----9--9--|-------------------------------------------
------------------7-----7-----7--7--|-------------------------------------------
                                                                                

                                                                                
---------------------------------------|--5--------------------------||---------
7-----7-----7--7-----9-----9-----9--9--|--5--------------------------||---------
7-----7-----7--7-----9-----9-----9--9--|--6--------------------------||---------
7-----7-----7--7-----9-----9-----9--9--|--7--------------------------||---------
5-----5-----5--5-----7-----7-----7--7--|--7--------------------------||---------
---------------------------------------|--5--------------------------||---------
                                                                                



================================================================================
==         Created with the a shareware version of the BUCKET 'O TAB          ==
==                  tablature creation software for Windows                   ==
==                           For more information:                            ==
==                          email: gse@ocsystems.com                          ==
==      US Mail: The Bucket, 3176-B5 Summit Square Dr., Oakton, VA 22124      ==
================================================================================
                                 Girl From Mars
                                      Ash
                                                                       Bass Part

Chris Bucknall
lj99@dial.pipex.com


    (solo acoustic intro)                                                         
||------------------------------------------------------------------------------
||------------------------------------------------------------------------------
||------------------------------------------------------------------------------
||------------------------------------------------------------------------------
                                                                                

     BRIDGE                                                                     
||-----------------------------------------------------||-----------------------
||*---------------------------------------------------*||-----------------------
||*---------------------------------------------------*||-----------------------
||----5-----5-----5--5-----5-----5-----5-----5--5--5---||-----------------------
                                                                                

     Verse 1                                                                    
||----------------------------------------------|-------------------------------
||*---------------------------------------------|-------------------------------
||*------------------5-----7-----7-----5-----5--|-------------------------------
||----5-----5-----x-----------------------------|-------------------------------
                                                                                

                                                                                
----------------------------------------||--------------------------------------
---------------------------------------*||--------------------------------------
------------------5-----5-----7-----7--*||--------------------------------------
7-----7-----x--7------------------------||--------------------------------------
                                                                                

                                                                                
------------------------------------------||------------------------------------
------------------------------------------||------------------------------------
---------------------5-----5-----7-----7--||------------------------------------
7-----7-----x--7--------------------------||------------------------------------
                                                                                

Chorus 1                                                                        
----------------------------------------------------|---------------------------
----------------------------------------------------|---------------------------
----------------------------7-----7--7-----7--7--7--|---------------------------
-5-----5--5-----5--5--5-----------------------------|---------------------------
                                                                                

                                                                                
---------------------------------------------------|----------------------------
---------------------------------------------------|----------------------------
5-----5--5-----5--5--5-----------------------------|----------------------------
---------------------------7-----7--7-----7--7--7--|----------------------------
                                                                                

                                                                                
---------------------------------------------------|----------------------------
---------------------------------------------------|----------------------------
---------------------------7-----7--7-----7--7--7--|----------------------------
5-----5--5-----5--5--5-----------------------------|----------------------------
                                                                                

                                                                                
---------------------------------------------------|----------------------------
---------------------------------------------------|----------------------------
5-----5--5-----5--5--5-----------------------------|----------------------------
---------------------------7-----7--7-----7--7--7--|----------------------------
                                                                                

                                                       play BRIDGE              
---------------------------------------------------||---------------------------
---------------------------------------------------||---------------------------
5-----5--5-----5--5--5-----7-----7--7-----7--7--7--||---------------------------
---------------------------------------------------||---------------------------
                                                                                

     Verse 2                                                                    
||----------------------------------------------|-------------------------------
||*---------------------------------------------|-------------------------------
||*------------------5-----7-----7-----5-----5--|-------------------------------
||----5-----5-----x-----------------------------|-------------------------------
                                                                                

                                                                                
----------------------------------------||--------------------------------------
---------------------------------------*||--------------------------------------
------------------5-----5-----7-----7--*||--------------------------------------
7-----7-----x--7------------------------||--------------------------------------
                                                                                

                                                                                
------------------------------------------||------------------------------------
------------------------------------------||------------------------------------
---------------------5-----5-----7-----7--||------------------------------------
7-----7-----x--7--------------------------||------------------------------------
                                                                                

Chorus 2                                                                        
----------------------------------------------------|---------------------------
----------------------------------------------------|---------------------------
----------------------------7-----7--7-----7--7--7--|---------------------------
-5-----5--5-----5--5--5-----------------------------|---------------------------
                                                                                

                                                                                
---------------------------------------------------|----------------------------
---------------------------------------------------|----------------------------
5-----5--5-----5--5--5-----------------------------|----------------------------
---------------------------7-----7--7-----7--7--7--|----------------------------
                                                                                

                                                                                
---------------------------------------------------|----------------------------
---------------------------------------------------|----------------------------
---------------------------7-----7--7-----7--7--7--|----------------------------
5-----5--5-----5--5--5-----------------------------|----------------------------
                                                                                

                                                                                
---------------------------------------------------|----------------------------
---------------------------------------------------|----------------------------
5-----5--5-----5--5--5-----------------------------|----------------------------
---------------------------7-----7--7-----7--7--7--|----------------------------
                                                                                

                                                          play BRIDGE           
------------------------------------------------------||------------------------
------------------------------------------------------||------------------------
5-----5--5-----5--5--5-----7-----7--7-----7--7--7-----||------------------------
------------------------------------------------------||------------------------
                                                                                

     SOLO:                                                                      
||----------------------------------------|-------------------------------------
||*---------------------------------------|-------------------------------------
||*------------------5--7-----7-----x--7--|-------------------------------------
||----5-----5-----x-----------------------|-------------------------------------
                                                                                

                                            (solo acoustic bit)                 
----------------------------------------||------------------||------------------
---------------------------------------*||------------------||------------------
5-----5-----x--5-----------------------*||------------------||------------------
---------------------5-----5-----x--5---||------------------||------------------
                                                                                

Final Extended Chorus                                                           
----------------------------------------------------|---------------------------
----------------------------------------------------|---------------------------
----------------------------7-----7--7-----7--7--7--|---------------------------
-5-----5--5-----5--5--5-----------------------------|---------------------------
                                                                                

                                                                                
---------------------------------------------------|----------------------------
---------------------------------------------------|----------------------------
5-----5--5-----5--5--5-----------------------------|----------------------------
---------------------------7-----7--7-----7--7--7--|----------------------------
                                                                                

                                                                                
---------------------------------------------------|----------------------------
---------------------------------------------------|----------------------------
---------------------------7-----7--7-----7--7--7--|----------------------------
5-----5--5-----5--5--5-----------------------------|----------------------------
                                                                                

                                                                                
---------------------------------------------------|----------------------------
---------------------------------------------------|----------------------------
5-----5--5-----5--5--5-----------------------------|----------------------------
---------------------------7-----7--7-----7--7--7--|----------------------------
                                                                                

                                                                                
---------------------------------------------------|----------------------------
---------------------------------------------------|----------------------------
---------------------------7-----7--7-----7--7--7--|----------------------------
5-----5--5-----5--5--5-----------------------------|----------------------------
                                                                                

                                                                                
---------------------------------------------------|----------------------------
---------------------------------------------------|----------------------------
5-----5--5-----5--5--5-----------------------------|----------------------------
---------------------------7-----7--7-----7--7--7--|----------------------------
                                                                                

                                                                                
---------------------------------------------------|----------------------------
---------------------------------------------------|----------------------------
---------------------------7-----7--7-----7--7--7--|----------------------------
5-----5--5-----5--5--5-----------------------------|----------------------------
                                                                                

                                                                                
---------------------------------------------------|----------------------------
---------------------------------------------------|----------------------------
5-----5--5-----5--5--5-----------------------------|----------------------------
---------------------------7-----7--7-----7--7--7--|----------------------------
                                                                                

                                                                                
------------------------------------------------------|-------------------------
------------------------------------------------------|-------------------------
5-----5--5-----5--5--5-----7-----7--7-----7--7--7-----|-------------------------
------------------------------------------------------|-------------------------
                                                                                

                                                                                
------------------||------------------------------------------------------------
------------------||------------------------------------------------------------
------------------||------------------------------------------------------------
5-----------------||------------------------------------------------------------
                                                                                



================================================================================
==         Created with the a shareware version of the BUCKET 'O TAB          ==
==                  tablature creation software for Windows                   ==
==                           For more information:                            ==
==                          email: gse@ocsystems.com                          ==
==      US Mail: The Bucket, 3176-B5 Summit Square Dr., Oakton, VA 22124      ==
================================================================================
                                 Girl From Mars
                                      Ash
                                                                            Solo
Chris Bucknall
lj99@dial.pipex.com

With Wah
                                                                                
||--------------------------------------------------||--------------------------
||---12p10h12p10h12p10h12p10h12p10h12p10h12p10h12---||--------------------------
||*------------------------------------------------*||--------------------------
||*------------------------------------------------*||--------------------------
||--------------------------------------------------||--------------------------
||--------------------------------------------------||--------------------------
                                                                                

                                                                                
-------------------------------------|------10-----9------------10-----|--------
----------9-----9--10-----10---------|-------------------12------------|--------
9h11--11----------------------11-----|--11-----------------------------|--------
-------------------------------------|---------------------------------|--------
-------------------------------------|---------------------------------|--------
-------------------------------------|---------------------------------|--------
                                                                                

                                                                                
----------------------------------|------10-----12-----9-----10-----|-----------
----------9-----9--10-----10------|---------------------------------|-----------
9h11--11----------------------11--|--11-----------------------------|-----------
----------------------------------|---------------------------------|-----------
----------------------------------|---------------------------------|-----------
----------------------------------|---------------------------------|-----------
                                                                                

                                                                                
12p10p9--12p10p9--12p10p9--12p10p9--10p9\7--9p7----------------------|----------
-------------------------------------------------10--9p7-------------|----------
----------------------------------------------------------9--7\6-----|----------
------------------------------------------------------------------9--|----------
---------------------------------------------------------------------|----------
---------------------------------------------------------------------|----------
                                                                                

                                                                                
------------------------------------------------------------|-------------------
14p1p10--14p12p10--14p12p10--14p12p10--14p12p10-------------|-------------------
-------------------------------------------------11--11~~~--|-------------------
------------------------------------------------------------|-------------------
------------------------------------------------------------|-------------------
------------------------------------------------------------|-------------------
                                                                                

                                                                                
--------------------------------------------------------------------------------
10--12--(14)--15--(14)--10-------------10------10--14-----(14)--15~~~--12-------
----------------------------11--9--11------11-----------------------------------
--------------------------------------------------------------------------------
--------------------------------------------------------------------------------
--------------------------------------------------------------------------------
                                                                                

                                                                                
------------||------------------------------------------------------------------
10------10--||------------------------------------------------------------------
----11------||------------------------------------------------------------------
------------||------------------------------------------------------------------
------------||------------------------------------------------------------------
------------||------------------------------------------------------------------
                                                                                



================================================================================
==         Created with the a shareware version of the BUCKET 'O TAB          ==
==                  tablature creation software for Windows                   ==
==                           For more information:                            ==
==                          email: gse@ocsystems.com                          ==
==      US Mail: The Bucket, 3176-B5 Summit Square Dr., Oakton, VA 22124      ==
================================================================================

A                                   E                                               
          Bm7
Do you remember the time when you were the girl from Mars
             D 
I don^?t know if you knew that
A                                               E
Oh we^?d stay up late playing cards
                               Bm7
Henry Winterman cigars
              (Bm7)                           D
And she never told me her name
          E                                    A
I still love you the girl from Mars
A              D   E                D                Bm7
Sitting in our dreamy-y days by the water^?s edge
D              E              A
On a cool summers night
                 D    E                D
Fire flies and stars in the sky 
             Bm7
Gently glowing light 
D                 E      A 
From your cigarrette
               D   E            D       Bm7
The bre-eze blowing softly on my face
        D                E                A
Reminds me of something else
                          D  E            D           Bm7 
Something that in my memory has been misplaced
D              E              Bm7
Suddenly all comes back
D            E                 A
And as I look to the stars
                            E                                                    D
I  remember the time when you were a girl from Mars
             Bm7
I don^?t know if you knew that
A                                                 E
Oh we^?d  stay up late playing cards
                               D
Henry Winterman cigars
               Bm7                              D 
And she never told me her name
          E                                    A
I still love you the girl from Mars
A                             D  E                                Bm7
Searching through the darkne-ess over the moonlit strand
         D          E    A
Electricity in the air
                 D E                    D               Bm7
Twisting all through the night on the terrace,
D              E               A
Now that summer^?s here
          D    E           D             Bm7
I kno-ow you are almost in love with me
         D      E              A
I can see it in your eyes
                      D       E        D           Bm7
Strange light shimmering over the sea tonight
            D         E               B
And it almost blows my mind
D             E                A
And as I look to the stars
                             E                                                      
 D
I  remember the time when you were a girl from Mars
             Bm7
I don^?t know if you knew that
A                                                 E
Oh we^?d  stay up late playing cards
                               D
Henry Winterman cigars
               Bm7                               D 
And she never told me her name
          E                                    A
I still love you the girl from Mars
  
:  |A              D| E               |D                |B              || 4 
times

             A         D E                                     Bm7
	Today I sleep in the chair by the window,
                   D           E             A
	It felt as if you^?d returned
                                       E               D           Bm7
	I thought that you were standing over me
                             D                       E             Bm7
	When I woke there was noone there.
                         D                  E             A
	I still love you the girl from Mars

 A                                     E                                            
        D
Do you  remember the time when you were a girl from Mars
             Bm7
I don^?t know if you knew that
A                                                 E
Oh we^?d  stay up late playing cards
                               D
Henry Winterman cigars
               Bm7                               A
And she never told me her name
                                       E                                            
       D
Do you  remember the time when you were a girl from Mars
             Bm7
I don^?t know if you knew that
A                                                E
Oh we^?d stay up late playing cards
                                D
Henry Winterman cigars
       Bm7                    D
And I still dream of you
          E                                    A
I still love you the girl from Mars


From chris@plane.u-net.com Sun Dec  8 12:21:13 1996
Date: Sat, 07 Dec 96 19:59:43 -500
From: Chris Plane 
To: guitar@nevada.edu
Subject: TAB: GIRL FROM MARS by ASH

ARTIST: ASH
ALBUM:  1977
SONG: GIRL FROM MARS

This is jus' the skeleton of the song, u can add all the
extra bits in yourself cos I can't be arsed doin it.


Intro/Chorus:

|----------x---------------
|----------x---------------
|-------9--x--7------------
|-7--7--9--x--7--9-9-------
|-7--7--7--x--5--9-9-------
|-5--5-----x-----7-7-------


Bridge:
|------------------
|------------------
|------------------
|-7--7--7--7-------
|-7--7--7--7-------
|-5--5--5--5-------



Verse:
|---------x----------------------------
|---------x---------6--6--6-----8--8---
|-------9-x-7--------7--7--7--9--9--9--
|--7--7-9-x-7--9--9--7--7--7--9--9--9--
|--7--7-7-x-5--9--9--5--5--5--7--7--7--
|--5--5---x----7--7--------------------


Just fiddle about till you get it. 

Tabbed By.........The Sherif Of Groovy Town(LPlane)
Tap to rate this tab
# A B C D E F G H I J K L M N O P Q R S T U V W X Y Z