Song name
# A B C D E F G H I J K L M N O P Q R S T U V W X Y Z

Ash - Dancing On The Moon tab

Tuning: Standard (EADGBe)

If you find any corrections please don't hesitate to tell me, but it seems to work alright to me.

NOTE: I've attempted tabbing the strumming pattern, I know its a poor attempt, so
just listen to the song to get the strumming pattern.


-INTRO/VERSE- (Light Distortion) Repeat x4
e|------------------------------------------------|
B|------------------------------------------------|
G|------------------------------------------------|
D|-7-7-7777-777-6-666-11-11-11111111-111111-7-777-|
A|-7-7-7777-777-6-666-11-11-11111111-111111-7-777-|
E|-5-5-5555-555-4-444--9--9--9-9-9-9--9-9-9-5-555-|

e|------------------------------------------------------|
B|------------------------------------------------------|
G|------------------------------------------------------|
D|-11-11-11111111-11111111-7-777-11-11-1111119-99999999-|
A|-11-11-11111111-11111111-7-777-11-11-1111119-99999999-|
E|--9--9--9-9-9-9--9-9-9-9-5-555--9--9--9-9-97-77777777-|


-CHORUS- (Distorted)
e|-------------------------|
B|-------------------------|
G|-9-9---------------------| Repeat
D|-9-9-7-77-11-111111-9999-|   x3
A|-7-7-7-77-11-111111-9999-|
E|-----5-55--9--9-9-9-7777-|

e|-------------|
B|-------------|
G|-------------|
D|-111111-1212-|
A|-111111-1212-|
E|--9-9-9-1010-|


-VERSE- (Light Distortion) : Repeat x2
e|------------------------------------------------|
B|------------------------------------------------|
G|------------------------------------------------|
D|-7-7-7777-777-6-666-11-11-11111111-111111-7-777-|
A|-7-7-7777-777-6-666-11-11-11111111-111111-7-777-|
E|-5-5-5555-555-4-444--9--9--9-9-9-9--9-9-9-5-555-|

e|------------------------------------------------------|
B|------------------------------------------------------|
G|------------------------------------------------------|
D|-11-11-11111111-11111111-7-777-11-11-1111119-99999999-|
A|-11-11-11111111-11111111-7-777-11-11-1111119-99999999-|
E|--9--9--9-9-9-9--9-9-9-9-5-555--9--9--9-9-97-77777777-|


-CHORUS- (Distorted)
e|-------------------------|
B|-------------------------|
G|-9-9---------------------| Repeat
D|-9-9-7-77-11-111111-9999-|   x3
A|-7-7-7-77-11-111111-9999-|
E|-----5-55--9--9-9-9-7777-|

e|----------------------------|
B|----------------------------|
G|----------------------------|
D|-11-11-11111111-111111-1414-|
A|-11-11-11111111-111111-1414-|
E|--9--9--9-9-9-9--9-9-9-1212-|


-BRIDGE- (Distorted)
e|---| |---------| |---------| |-----------------------------|
B|---| |---------| |---------| |-----------------------------|
G|---| |---------| |---------| |-----------------------------| Repeat
D|-7-| |-7-77-11-| |-7-77-11-| |-7-77-11-11-1111119-99999999-|   x2
A|-7-| |-7-77-11-| |-7-77-11-| |-7-77-11-11-1111119-99999999-|
E|-5-| |-5-55--9-| |-5-55--9-| |-5-55--9--9--9-9-97-77777777-|


-CHORUS- (Distorted)
e|-------------------------|
B|-------------------------|
G|-9-9---------------------| Repeat
D|-9-9-7-77-11-111111-9999-|   x3
A|-7-7-7-77-11-111111-9999-|
E|-----5-55--9--9-9-9-7777-|

e|----------------------------|
B|----------------------------|
G|----------------------------|
D|-11-11-11111111-111111-1414-|
A|-11-11-11111111-111111-1414-|
E|--9--9--9-9-9-9--9-9-9-1212-|

e|-------------------------|
B|-------------------------|
G|-9-9---------------------| Repeat
D|-9-9-7-77-11-111111-9999-|   x5
A|-7-7-7-77-11-111111-9999-|
E|-----5-55--9--9-9-9-7777-|

e|-----------------------------|
B|-----------------------------|
G|-----------------------------|
D|-11-11-11111111-111111-1414\-|
A|-11-11-11111111-111111-1414\-|
E|--9--9--9-9-9-9--9-9-9-1212\-|
Tap to rate this tab
# A B C D E F G H I J K L M N O P Q R S T U V W X Y Z