Song name
# A B C D E F G H I J K L M N O P Q R S T U V W X Y Z

Ash - On A Wave tab

Artist-ASH
Song-ON A WAVE
Album MELTDOWN

This is my first tab so go easy on me.

Verse.

|-------------------------------------------------|
|-------------------------------------------------|
|-----9-9-----------------------------------------|
|-----9-9------10-----9-----7-7-7-7-7-7-7-7-------|
|-----7-7------10-----9-----7-7-7-7-7-7-7-7-------|
|--------------8------7-----5-5-5-5-5-5-5-5-------| x12

Chorus.

|--------------------------------------------|
|--------------------------------------------|
|-----9-9-9----------------7-----------------|
|-----9-9-9-------9--------7-------7---------|
|-----7-7-7-------9--------5-------7---------|
|-----------------7----------------5---------|

only got the first part of the chorus guys, if there are any mistakes then you can email 
at gravy123_2@hotmail.com any corrections are appreciated.
Tap to rate this tab
 
# A B C D E F G H I J K L M N O P Q R S T U V W X Y Z