Guitaretab - guitar tabs
Song name
# A B C D E F G H I J K L M N O P Q R S T U V W X Y Z

Ash - Twilight Of The Innocents tab

Music: T. Wheeler
Submitted by: Stu Bunce

Intro/verse (strings)

e |-----------------|
B |-----------------|
G |-2---3---2---0---|
D |-----------------|
A |-----------------|
E |-----------------|

Piano bit, just before drums (right hand part only):

e |-17-15--------------18-17-15------------|
B |---------15-18-17--------------13-17-15-|
G |----------------------------------------|
D |----------------------------------------|
A |----------------------------------------|
E |----------------------------------------|

Chorus 1 (I'm still breathing, my heart's still beating...)

e |-5---5---5---5---6---6---6---6---|
B |-7---7---7---7---6---6---6---6---|
G |-7---7---7---7---7---7---7---7---|
D |---------------------------------|
A |---------------------------------|
E |---------------------------------|

e |-5---5---5---5---3---3---3---3---|
B |-6---6---6---6---5---5---5---5---|
G |-5---5---5---5---5---5---5---5---|
D |---------------------------------|
A |---------------------------------|
E |---------------------------------|

Riff/verse 3 (Beneath the arches of a cold and distant sky...)
[ Tab from: http://www.guitaretab.com/a/ash/92479.html ]
   PM------------------------
e |---------------------------|
B |---------------------------|
G |---------------------------|
D |---------------------------|
A |-5-5-3h5-5-5-5-5-3-3h5-5-3-|
E |---------------------------|

Pretty sure that the solo-y bit before the instrumental is the same
as the above riff, but without the palm muting and with lots of wah-wah.

Instrumental (work out the rythm yourself, lazy)

e |-----------------|
B |-----------------|
G |-7-----------5---|
D |-7---8---3---5---|
A |-5---8---3---3---|
E |-----6---1-------|
            *
* - This might be a high F on the 8th fret.

Play that till the end and then this. 
I'm pretty sure it's right, might not be exact but it sounds fine:

e |-------------------------|
B |-10----10----10----10----|
G |-11----11----11----11----|
D |----12----12----12----12-|
A |-------------------------|
E |-------------------------|

e |-10----10----12---13---|
B |-11----11--------------|
G |----10----10-----------|
D |-----------------------|
A |-----------------------|
E |-----------------------|

e |-8-----8-----8-----8-----|
B |-10----10----10----10----|
G |----10----10----10----10-|
D |-------------------------|
A |-------------------------|
E |-------------------------|

e |-8----8----10----8----|
B |-8----8---------------|
G |---10---10----10---10-|
D |----------------------|
A |----------------------|
E |----------------------|
Related for Twilight Of The Innocents tab