Song name
# A B C D E F G H I J K L M N O P Q R S T U V W X Y Z

Asher Roth - Lark On My Go-kart tab

Verse
e|-----------------------|
B|-----------------------|
G|-9-7-9--7--------------|
D|----------9-7-------2-2|
A|--------------10-7--2-2|
E|--------------------0-0|

Break/Chorus
e|--------------------------------|
B|--------------------------------|
G|-----7--7-7-7-7-7-7-7-7-7-7-7-7-|
D|-7-7-5--4-4-5-5-4-4-5-5-4-4-5-5-|
A|-5-5----------------------------|
E|--------------------------------|

Simple Song, Fun to Play
Tap to rate this tab
 
# A B C D E F G H I J K L M N O P Q R S T U V W X Y Z