Song name
# A B C D E F G H I J K L M N O P Q R S T U V W X Y Z

Asheru - Boondocks Theme tab

Easy version:
E|-------------------------------------------------------------------------| 
B|-------------------------------------------------------------------------| 
G|-------------------------------------------------------------------------| 
D|------------------2-2-4-------2--4--2------------------------------------| 
A|-----0--2-2-4--4-----------4-----------4--02--0-----------------2--------| 
E|--2---------------------------------------------------2--02--------4-----| 

Hard version:
E|-------------------------------------------------------------------------| 
B|-------------------------------------------------------------------------| 
G|------------------4-4-6-------4-6--4-------------------------------------| 
D|-----2--4-4-6--6--2-2-4----6--2-4--2---6---4--------------------4--------| 
A|--4--0--2-2-4--4-----------4-----------4--02--0-------4---4-----2--6-----| 
E|--2---------------------------------------------------2--02--------4-----| 
Tap to rate this tab
# A B C D E F G H I J K L M N O P Q R S T U V W X Y Z