Song name
# A B C D E F G H I J K L M N O P Q R S T U V W X Y Z

Ashes Divide - Denial Waits tab

denial waits - ashes divide
standard tuning


Verse

e|---------------------------------|---------------------------------|
B|---------------------------------|---------------------------------|
G|---------------------------------|---------------------------------|
D|-----5-----5-----5-----5---------|-----5-----5-----5-----5---------|
A|-7-7---7-7---7-7---7-7---7-7-5h7-|-7-7---7-7---7-7---7-7---7-7-5---|
E|---------------------------------|---------------------------------|

e|---------------------------------|---------------------------------|
B|---------------------------------|---------------------------------|
G|---------------------------------|---------------------------------|
D|-----5-----5-----5-----5---------|-----5-----5-----5-----5---------|
A|-3-3---3-3---3-3---3-3---3-3-0---|-3-3---3-3---3-3---3-3---3-3-0---|
E|---------------------------------|---------------------------------|

Prechorus
e|----------|
B|----------|
G|-5----5-5-|
D|-5----5-5-|
A|-3----3-3-|
E|----------|


First Chorus

e|---------------------------------|
B|---------------------------------|
G|-9-9-9-9-9-9-9-9-9-9-9-9-9-9-9-9-|
D|-9-9-9-9-9-9-9-9-9-9-9-9-9-9-9-9-|
A|-7-7-7-7-7-7-7-7-7-7-7-7-7-7-7-7-|
E|---------------------------------|

rest...

e|---------------------------------|
B|---------------------------------|
G|-5-5-5-5-5-5-5-5-5-5-5-5-5-5-5-5-|
D|-5-5-5-5-5-5-5-5-5-5-5-5-5-5-5-5-|
A|-3-3-3-3-3-3-3-3-3-3-3-3-3-3-3-3-|
E|---------------------------------|

rest...

Second Chorus, same thing basically without the rest

e|---------------------------------|---------------------------------|
B|---------------------------------|---------------------------------|
G|-9-9-9-9-9-9-9-9-9-9-9-9-9-9-9-9-|-9-9-9-9-9-9-9-9-9-9-9-9-9-9-9-9-|
D|-9-9-9-9-9-9-9-9-9-9-9-9-9-9-9-9-|-9-9-9-9-9-9-9-9-9-9-9-9-9-9-9-9-|
A|-7-7-7-7-7-7-7-7-7-7-7-7-7-7-7-7-|-7-7-7-7-7-7-7-7-7-7-7-7-7-7-7-7-|
E|---------------------------------|---------------------------------|

e|---------------------------------|---------------------------------|
B|---------------------------------|---------------------------------|
G|-5-5-5-5-5-5-5-5-5-5-5-5-5-5-5-5-|-5-5-5-5-5-5-5-5-5-5-5-5-5-5-5-5-|
D|-5-5-5-5-5-5-5-5-5-5-5-5-5-5-5-5-|-5-5-5-5-5-5-5-5-5-5-5-5-5-5-5-5-|
A|-3-3-3-3-3-3-3-3-3-3-3-3-3-3-3-3-|-3-3-3-3-3-3-3-3-3-3-3-3-3-3-3-3-|
E|---------------------------------|---------------------------------|


Solo

e|---------------------------------|----------10-12----------10-12-12-12|
B|---------------------------------|-10-12-13-------10-12-13------------|
G|-12--------12-11-----------------|------------------------------------|
D|---------------------------------|------------------------------------|
A|---------------------------------|------------------------------------|
E|---------------------------------|------------------------------------| 
last bar x4

The Chorus starts playing aswell
e|---------------------------------|------------------------------------|
B|-15-15-15-13-13-13-12-12-12-12-12|-8-8-8-8-8-8-8-8-8-8-8-5-8p5-8p5-8p5|
G|---------------------------------|------------------------------------|
D|---------------------------------|------------------------------------|
A|---------------------------------|------------------------------------|
E|---------------------------------|------------------------------------|

e|---------------------------------|------------------------------------|
B|-15-15-15-13-13-13-12-12-12-12-12|-12-12-12-12-12-12-12-12-12-12-12-12|
G|---------------------------------|------------------------------------|
D|---------------------------------|------------------------------------|
A|---------------------------------|------------------------------------|
E|---------------------------------|------------------------------------| 
repeat last 4 bars

e|---------------------------------|------------------------------------|
B|-8-8-8-8-8-8-8-10-10-10-10-10-10-|-12-12-12-12-12-12-12-13p12-10------|
G|---------------------------------|------------------------------------|
D|---------------------------------|------------------------------------|
A|---------------------------------|------------------------------------|
E|---------------------------------|------------------------------------|

thats it.
Tap to rate this tab
# A B C D E F G H I J K L M N O P Q R S T U V W X Y Z