Ashes Divide - Too Late tab

Ashes Divide Ė Too Late (acoustic)
Tabbed by Mychelle
mychellerogers@gmail.com

Capo on 5

Intro
e|----------------------------------------------------------------|
B|----------------------------------------------------------------|
G|----------------------------------------------------------------|
D|---10-8-----------10-8---------10-10-11-10-11-10-11-10-11-10----|
A|-8-----11-8-11-8-------11-8-11-------------------------------11-|
E|----------------------------------------------------------------|

(chords relative to capo)
G			     B				      Cmaj7
If I could separate me from myself Iíd stay away from me
If you decide Iím wrong and you can wait that long maybe itís not too late

e|--------------------------------------------------|
B|--------------------------------------------------|
G|--------------------------------------------------|
D|---10-11------------------------------------------|
A|-8------------------------------------------------|
E|--------------------------------------------------|


B			   	   Cmaj7
I will not lose you to the melting sky
Or to the mad parade
To the bloody jaws or the fire fall
Donít be afraid

You need never know a cold heart, heart of stone
Or lonely memory, you will never be alone

G			     B				      Cmaj7
If I could separate me from myself Iíd stay away from me
If you decide Iím wrong and you can wait that long maybe itís not too late

Solo

e|------------------------11-------------------------------|
B|-11------8------11------11-(x3)-11-------8------11-------|
G|-10(x11)-8-(x3)-10-(x11---------10-(x11)-8-(x3)-10-(x11)-|
D|---------------------------------------------------------|
A|---------------------------------------------------------|
E|---------------------------------------------------------|


B				    Cmaj7
I will not lose you to a world that doesnít care
To the monsters that wonít have you
Never surrender you, I always will be there
I will be there to wrap myself around you
I will not lose you to the dark or to the nights
To the terrible machine, never let you lose your light

G			     B				      Cmaj7
If I could separate me from myself Iíd stay away from me
If you decide Iím wrong and you can wait that long donít pull away from me

G			     B				      Cmaj7
If I could separate me from myself Iíd stay away from me
If you decide Iím wrong and you can wait that long maybe itís not too late

G			     B				      Cmaj7
If I could separate me from myself Iíd stay away from me
If you think I belong, stay and keep me strong, maybe itís not too late

Tap to rate this tab
 
# A B C D E F G H I J K L M N O P Q R S T U V W X Y Z